Cifras e Tablaturas
Southern Culture on the Skids

Southern Culture on the Skids

Daddy Was A Preacher But Mama Was A Go-go Girl

Cifras Cancelar Versão de Impressão
cifras

Southern Culture on the Skids - Daddy Was A Preacher But Mama Was A Go-go Girl

fixar na tela  
Exibindo: vídeo-aula ver clipes redimensionar

Tom:

  
e:-------| 
B:-------| 
G:-------| 
D:-2-----| 
A:-0-----| 
E:-------| 
                                                
e:------------------------------------------| 
B:------------------------------------------| 
G:------------------------------------------| 
D:-2-2--4--2-2-2-4--2-2-2-4--2-2-2--5---4-2-| 
A:-0-0--0--0-0-0-0--0-0-0-0--0-0-0--0-0-0-0-| 
E:------------------------------------------| 

e:-----------------------------------| 
B:-----------------------------------| 
G:-----------------------------------| 
D:-2-2--4--2-5-2-4-2--2-2--4-2-5-4-2-| 
A:-0-0--0--0-0-0-0-0--0-0--0-0-0-0-0-| 
E:-----------------------------------| 

                                 x4 
e:---------------------------------| 
B:---------------------------------| 
G:---------------------------------| 
D:-2-2--4--5-2-4-2--2-2--4-2-5-4-2-| 
A:-0-0--0--0-0-0-0--0-0--0-0-0-0-0-| 
E:---------------------------------| 

  verse 
e:-----------------------------------------------| 
B:-----------------------------------------------| 
G:-----------------------------------------------| 
D:-2-2--4--2-2-2-4--2-2-2-4--2-2-2--4--2-2-2-4-2-| 
A:-0-0--0--0-0-0-0--0-0-0-0--0-0-0--0--0-0-0-0-0-| 
E:-----------------------------------------------| 

                   
e:---------------------------------| 
B:---------------------------------| 
G:---------------------------------| 
D:-------2------2-----2-----2------| 
A:-0-3-4----3-4---3-4---3-4---3-0--| 
E:---------------------------------| 

e:---------------------------------| 
B:---------------------------------| 
G:---------------------------------| 
D:-2-2--4--5-2-4-2--2-2--4-2-5-4-2-| 
A:-0-0--0--0-0-0-0--0-0--0-0-0-0-0-| 
E:---------------------------------| 

e:------------------------------------------| 
B:------------------------------------------| 
G:------------------------------------------| 
D:------------------------------------------| 
A:------------------------------------------| 
E:-000-3-000-3-000-3-000-3b-3b~~~---0---0-3-| 

e:---------------------------------| 
B:---------------------------------| 
G:---------------------------------| 
D:-2-2--4--5-2-4-2--2-2--4-2-5-4-2-| 
A:-0-0--0--0-0-0-0--0-0--0-0-0-0-0-| 
E:---------------------------------| 

e:-------| 
B:-3-----| 
G:-2-----| 
D:-0-----| 
A:-------| 
E:-------| 

e:-----------------------| 
B:-----------------------| 
G:-----------------------| 
D:-2-2--4--2-5-2--2-4-2--| 
A:-0-0--0--0-0-0--0-0-0--| 
E:-----------------------| 

e:-----------------------| 
B:-----------------------| 
G:-----------------------| 
D:-----------------------| 
A:-2-2--4--2-5-2--2-4-2--| 
E:-0-0--0--0-0-0--0-0-0--| 


e:---------------------------------| 
B:---------------------------------| 
G:---------------------------------| 
D:-2-2--4--5-2-4-2--2-2--4-2-5-4-2-| 
A:-0-0--0--0-0-0-0--0-0--0-0-0-0-0-| 
E:---------------------------------| 

  verse 
e:-----------------------------------------------| 
B:-----------------------------------------------| 
G:-----------------------------------------------| 
D:-2-2--4--2-2-2-4--2-2-2-4--2-2-2--4--2-2-2-4-2-| 
A:-0-0--0--0-0-0-0--0-0-0-0--0-0-0--0--0-0-0-0-0-| 
E:-----------------------------------------------| 

e:---------------------------------| 
B:---------------------------------| 
G:---------------------------------| 
D:-------2------2-----2-----2------| 
A:-0-3-4----3-4---3-4---3-4---3-0--| 
E:---------------------------------| 

e:---------------------------------| 
B:---------------------------------| 
G:---------------------------------| 
D:-2-2--4--5-2-4-2--2-2--4-2-5-4-2-| 
A:-0-0--0--0-0-0-0--0-0--0-0-0-0-0-| 
E:---------------------------------| 

e:------------------------------------------| 
B:------------------------------------------| 
G:------------------------------------------| 
D:------------------------------------------| 
A:------------------------------------------| 
E:-000-3-000-3-000-3-000-3b-3b~~~---0---0-3-| 

e:---------------------------------| 
B:---------------------------------| 
G:---------------------------------| 
D:-2-2--4--5-2-4-2--2-2--4-2-5-4-2-| 
A:-0-0--0--0-0-0-0--0-0--0-0-0-0-0-| 
E:---------------------------------| 

e:-------| 
B:-3-----| 
G:-2-----| 
D:-0-----| 
A:-------| 
E:-------| 

e:-----------------------| 
B:-----------------------| 
G:-----------------------| 
D:-2-2--4--2-5-2--2-4-2--| 
A:-0-0--0--0-0-0--0-0-0--| 
E:-----------------------| 

e:-----------------------| 
B:-----------------------| 
G:-----------------------| 
D:-----------------------| 
A:-2-2--4--2-5-2--2-4-2--| 
E:-0-0--0--0-0-0--0-0-0--| 

e:---------------------------------| 
B:---------------------------------| 
G:---------------------------------| 
D:-------2------2-----2-----2------| 
A:-0-3-4----3-4---3-4---3-4---3-0--| 
E:---------------------------------| 

  solo                                         ----- 
e:--------------------------------------------/---------| 
B:-------------------------------------------/----------| 
G:------------------------------------------/-----------| 
D:-----------------------------------------/------------| 
A:-3-00000--3-00000--3-00000--3-00000--3bf/----3-3-3--0-| 
E:------------------------------------------------------| 

                                 1:18 
e:-------------------------------5----------------------8-5--------| 
B:----------------------------------5-5-5-5-5--5-5-7-5--7-5--------| 
G:-------2-4--4bf-2---2-4-2--4/6----6-6-6-6-6--5-6-6-6------7-5~~~-| 
D:---2-4------------4----------------------------------------------| 
A:-3---------------------------------------------------------------| 
E:-----------------------------------------------------------------| 

e:-------------------5---------------5------7--------9----9--9--9--9--| 
B:-----------------6----8-6~~~----------------------------------------| 
G:---------------7--------6~~~---4/6----6/8----8/10----10----10-10-10-| 
D:-7-5-9999999--------------------------------------------------------| 
A:-----7777777--------------------------------------------------------| 
E:--------------------------------------------------------------------| 

e:-8-7-6-5-4---------------------------------------------------------| 
B:-------------------------------------------------------------------| 
G:-9-8-7-6-5--3-0-2-------------8-10bfp8-8----8-10-8~~~-------8-10-8-| 
D:----------------0--------8-10------------10------------8/10--------| 
A:-------------------99999-------------------------------------------| 
E:-------------------------------------------------------------------| 

e:-------------------------------------------| 
B:-8p7-----------------------5-----------8-8-| 
G:-----9p7------6-6----------5-----------7-7-| 
D:---------9p7------7-5---------7-5----------| 
A:----------------------7-5---------7--------| 
E:------------------------------------5------| 

  daddy was a preacher... 
e:----------------------------------------------------------| 
B:----------------------------------------------------------| 
G:----------------------------------------------------------| 
D:-2-2--4--2-2-2--4--2-2-2--4--2-2-2--4--2-2-2--4--2-2-2--4-| 
A:-0-0--0--0-0-0--0--0-0-0--0--0-0-0--0--0-0-0--0--0-0-0--0-| 
E:----------------------------------------------------------| 

e:----------------------------| 
B:-------------2-2------------| 
G:-------------2-2------------| 
D:-2-2--4--2-2-2-2-2--4--2-2--| 
A:-0-0--0--0-0-0-0-0--0--0-0--| 
E:----------------------------| 

e:------------------------------------------------| 
B:-------------------2-2--------------------------| 
G:-------------------2-2--------------------------| 
D:-2-2--4--2-2-2--4--2-2-2--4--2-2-2--4--2-2-2--4-| 
A:-0-0--0--0-0-0--0--0-0-0--0--0-0-0--0--0-0-0--0-| 
E:------------------------------------------------| 

e:-------------------------------| 
B:----------3-3-3----------3-3-3-| 
G:--------2-2-2-2--------2-2-2-2-| 
D:-2-2----2-2-2-2--------2-2-2-2-| 
A:-0-0--0-0-0-0-0-0-0--0-0-0-0-0-| 
E:-------------------------------| 

e:----------------------------------------------------------| 
B:----------------------------------------------------------| 
G:----------------------------------------------------------| 
D:-2-2--4--2-2-2--4--2-2-2--4--2-2-2--4--2-2-2--4--2-2-2--4-| 
A:-0-0--0--0-0-0--0--0-0-0--0--0-0-0--0--0-0-0--0--0-0-0--0-| 
E:----------------------------------------------------------| 

e:---------------------------------------------------| 
B:-2-2--2/4--4-4--4/7--7-7--7/9--10-10--10/15--15-15-| 
G:-2-2--2/4--4-4--4/7--7-7--7/9--9--9---9-/14--14-14-| 
D:---------------------------------------------------| 
A:---------------------------------------------------| 
E:---------------------------------------------------| 

e:------------------| 
B:------------------| 
G:------------------| 
D:-2-2--4--5-2-4-2--| 
A:-0-0--0--0-0-0-0--| 
E:------------------| 

e:------------------------| 
B:------------------------| 
G:------------------------| 
D:------------------------| 
A:------------------------| 
E:-000-3-000-3-000-3-000--| 

  one more time 
e:----------------------------------------------------------| 
B:----------------------------------------------------------| 
G:----------------------------------------------------------| 
D:-2-2--4--2-2-2--4--2-2-2--4--2-2-2--4--2-2-2--4--2-2-2--4-| 
A:-0-0--0--0-0-0--0--0-0-0--0--0-0-0--0--0-0-0--0--0-0-0--0-| 
E:----------------------------------------------------------| 

  daddy was a preacher... 
e:----------------------------------------------------------| 
B:----------------------------------------------------------| 
G:----------------------------------------------------------| 
D:-2-2--4--2-2-2--4--2-2-2--4--2-2-2--4--2-2-2--4--2-2-2--4-| 
A:-0-0--0--0-0-0--0--0-0-0--0--0-0-0--0--0-0-0--0--0-0-0--0-| 
E:----------------------------------------------------------| 

e:---------------------------------------------| 
B:---------------------------------------------| 
G:-6bf--6bf--6bf--6bf--6bf--6bf-6bp4---4-------| 
D:-----------------------------------6---6~~~~-| 
A:---------------------------------------------| 
E:---------------------------------------------| 

e:----------------------------------------------------------| 
B:----------------------------------------------------------| 
G:----------------------------------------------------------| 
D:-2-2--4--2-2-2--4--2-2-2--4--2-2-2--4--2-2-2--4--2-2-2--4-| 
A:-0-0--0--0-0-0--0--0-0-0--0--0-0-0--0--0-0-0--0--0-0-0--0-| 
E:----------------------------------------------------------| 

e:-12--12-12-12-11-10-9-8-7--5--3-----------------| 
B:-12--12-12-12-11-10-9-8-7--5--3--5-3--------5/--| 
G:---------------------------------5-3--------5/--| 
D:--------------------------------------5-3-5-----| 
A:------------------------------------------------| 
E:------------------------------------------------| 

e:----------------------------------------------------------| 
B:----------------------------------------------------------| 
G:----------------------------------------------------------| 
D:-2-2--4--2-2-2--4--2-2-2--4--2-2-2--4--2-2-2--4--2-2-2--4-| 
A:-0-0--0--0-0-0--0--0-0-0--0--0-0-0--0--0-0-0--0--0-0-0--0-| 
E:----------------------------------------------------------| 

e:-2----| 
B:-3----| 
G:-2----| 
D:-0----| 
A:------| 
E:------| 

e:-----------------------| 
B:-----------------------| 
G:-----------------------| 
D:-2-2--4--2-5-2--2-4-2--| 
A:-0-0--0--0-0-0--0-0-0--| 
E:-----------------------| 

e:-----------------------| 
B:-----------------------| 
G:-----------------------| 
D:-----------------------| 
A:-2-2--4--2-5-2--2-4-2--| 
E:-0-0--0--0-0-0--0-0-0--| 

e:---------------------------------| 
B:---------------------------------| 
G:---------------------------------| 
D:-------2------2-----2-----2------| 
A:-0-3-4----3-4---3-4---3-4---3-0--| 
E:---------------------------------| 


e:-----------------------| 
B:-----------------------| 
G:-----------------------| 
D:-2-2--4--2-5-2--2-4-2--| 
A:-0-0--0--0-0-0--0-0-0--| 
E:-----------------------| 

e:-----------------------| 
B:-----------------------| 
G:-----------------------| 
D:-----------------------| 
A:-2-2--4--2-5-2--2-4-2--| 
E:-0-0--0--0-0-0--0-0-0--| 

e:---------------------------------| 
B:---------------------------------| 
G:---------------------------------| 
D:-------2------2-----2-----2------| 
A:-0-3-4----3-4---3-4---3-4---3-0--| 
E:---------------------------------| 

e:-----------------------| 
B:-----------------------| 
G:-----------------------| 
D:-2-2--4--2-5-2--2-4-2--| 
A:-0-0--0--0-0-0--0-0-0--| 
E:-----------------------| 

e:-----------------------| 
B:-----------------------| 
G:-----------------------| 
D:-----------------------| 
A:-2-2--4--2-5-2--2-4-2--| 
E:-0-0--0--0-0-0--0-0-0--| 

e:-------------------------------------------------------------------------------------| 
B:-------------------------------------------------------------------------------------| 
G:-------------2-4bfp2-2~~~------------------------------------------------------------| 
D:-2-------2-4----------------222222222222222222222------------------------------------| 
A:-0--0--4--------------------000000000000000000000------------------------------------| 
E:---------------------------------------------------555555544444444333333322222111111-| 

e:---------------| 
B:---------------| 
G:---------------| 
D:-----------2---| 
A:-----------0---| 
E:-00000-0-------|  
  

top 5 | southern culture on the skids
top rock'n roll
Outras músicas do artista letras do(a) Southern Culture on the Skids
Top cifras »Top artistas »
Petaxxon Comunicação Online
Cifras.com.br - Melhor e mais completo site de cifras e tablaturas do Brasil
Mais de 1 milhão de acordes de músicas cadastradas desde 2003
As informações contidas no nosso site são colaborações de seus usuários e podem conter erros, sendo assim, não nos responsabilizamos sobre nenhuma destas.
close
menos
mais
close
Cor dos acordes:

Cor da letra:

 

save
close
close
 
redimensionar