Cifras e Tablaturas
Stargazer

Stargazer

Of The Sun

Cifras Cancelar Versão de Impressão Print

Stargazer - Of The Sun

Tom: D#

  			

Tuning: D# G# C# F# A# D#  

Tab by Kranholio 


  Gtr I 

|--------------------------------------------------------------| 
|--------------------------------------------------------------| 
|--------------------------------------------------------------| 
|-9-9--9-9-9-9-9--9-9--9-9-9-9-9--9-9--9-9-9-9-9--9-4--4-4-4-4-| 
|-9-9--9-9-9-9-9--9-9--9-9-9-9-9--9-9--9-9-9-9-9--9-4--4-4-4-4-| 
|-8-7--7-7-7-7-7--5-7--7-7-7-7-7--8-7--7-7-7-7-7--5-2--2-2-2-2-| 
                         


  
|--------------------| 
|--------------------| 
|--------------------| 
|-4--4-4-4-4--5-4----| 
|-4--4-4-4-4--5-4----| 
|-2--2-2-2-2--3-2----|                                                                  - Intro (x 2) 


  
|--------------------------------------------------------------| 
|--------------------------------------------------------------| 
|--------------------------------------------------------------| 
|-9-9--9-9-9-9-9--9-9--9-9-9-9-9--9-9--9-9-9-9-9--9-4----------| 
|-9-9--9-9-9-9-9--9-9--9-9-9-9-9--9-9--9-9-9-9-9--9-4--4-4-4-4-| 
|-8-7--7-7-7-7-7--5-7--7-7-7-7-7--8-7--7-7-7-7-7--5-2--2-2-2-2-| 


  
|--------------------------------------------------------------------------------------------------| 
|--------------------------------------------------------------------------------------------------| 
|--------------------------------------------------------------------------------------------------| 
|--------------------------------------------7-----------------------------------------------------| 
|-5-4-3-4--4-4-4-4--5-4-3-4--4-4-4-4--5-4-3--7--7-7-7-7--8-7-5-7--7-7-7-7--8-7-5-7--7-7-7-7--8-7-5-| 
|-3-2-1-2--2-2-2-2--3-2-1-2--2-2-2-2--3-2-1--5--5-5-5-5--6-5-3-5--5-5-5-5--6-5-3-5--5-5-5-5--6-5-3-| 


Then after the second time the solo comes in - 

   
|-----------------------------------------------------------------------| 
|-13-12--10-12--13-12--10--7-7-7-7-7-7-10-7-7-7-7-7-7-12-7-7-7-7-7-7----| 
|-----------------------------------------------------------------------| 
|-10--9---7--9--10--9---7-----------------------------------------------| 
|-----------------------------------------------------------------------| 
|-----------------------------------------------------------------------| 


   
|--------10-12--13-12--10-----------------------------------------------| 
|-13-12--10-12--13-12--10--5-5-6-6-8-8-9-9-8-8-6-6-5-6-6-8-8-9-9-8-8----| 
|-----------------------------------------------------------------------| 
|-10--9---7--9--10--9---7-----------------------------------------------| 
|-----------------------------------------------------------------------| 
|-----------------------------------------------------------------------| 

|-------------------------------------------------9-9--------------------------------------------------| 
|-9-9-10-10-12-12-13-13-12-12-10-10-7-7-9-9-10-10-----10-10-9-9-10-10-12-12-13-13-10-10-12-12-13-13-15-| 
|------------------------------------------------------------------------------------------------------| 
|------------------------------------------------------------------------------------------------------| 
|------------------------------------------------------------------------------------------------------| 
|------------------------------------------------------------------------------------------------------| 

|----12-12-13-13-16----------------| 
|-15-------------------------------| 
|----------------------------------| 
|----------------------------------| 
|----------------------------------| 
|----------------------------------| 



Then the introduction riff comes back in -  

  
|--------------------------------------------------------------| 
|--------------------------------------------------------------| 
|--------------------------------------------------------------| 
|-9-9--9-9-9-9-9--9-9--9-9-9-9-9--9-9--9-9-9-9-9--9-4--4-4-4-4-| 
|-9-9--9-9-9-9-9--9-9--9-9-9-9-9--9-9--9-9-9-9-9--9-4--4-4-4-4-| 
|-8-7--7-7-7-7-7--5-7--7-7-7-7-7--8-7--7-7-7-7-7--5-2--2-2-2-2-| 


     PM----| 

|--------------------| 
|--------------------| 
|--------------------| 
|-4--4-4-4-4--5-4----| 
|-4--4-4-4-4--5-4----| 
|-2--2-2-2-2--3-2----|                                                                   


|--------------------------------------------------------------| 
|--------------------------------------------------------------| 
|--------------------------------------------------------------| 
|-9-9--9-9-9-9-9--9-9--9-9-9-9-9--9-9--9-9-9-9-9--9-4----------| 
|-9-9--9-9-9-9-9--9-9--9-9-9-9-9--9-9--9-9-9-9-9--9-4--4-4-4-4-| 
|-8-7--7-7-7-7-7--5-7--7-7-7-7-7--8-7--7-7-7-7-7--5-2--2-2-2-2-| 


|-------------------------------------------------------------------------------------------------| 
|-------------------------------------------------------------------------------------------------| 
|-------------------------------------------------------------------------------------------------| 
|--------------------------------------------7----------------------------------------------------| 
|-5-4-3-4--4-4-4-4--5-4-3-4--4-4-4-4--5-4-3--7--7-7-7-7--8-7-5-7--7-7-7-7--8-7-5-7--7-7-7-7--8-7-5| 
|-3-2-1-2--2-2-2-2--3-2-1-2--2-2-2-2--3-2-1--5--5-5-5-5--6-5-3-5--5-5-5-5--6-5-3-5--5-5-5-5--6-5-3| 


|--------------------------------------------------------------| 
|--------------------------------------------------------------| 
|--------------------------------------------------------------| 
|-9-9--9-9-9-9-9--9-9--9-9-9-9-9--9-9--9-9-9-9-9--9-4--4-4-4-4-| 
|-9-9--9-9-9-9-9--9-9--9-9-9-9-9--9-9--9-9-9-9-9--9-4--4-4-4-4-| 
|-8-7--7-7-7-7-7--5-7--7-7-7-7-7--8-7--7-7-7-7-7--5-2--2-2-2-2-| 



|--------------------------------------------------------------| 
|--------------------------------------------------------------| 
|--------------------------------------------------------------| 
|-9-9--9-9-9-9-9--9-9--9-9-9-9-9--9-9--9-9-9-9-9--9-4--4-4-4-4-| 
|-9-9--9-9-9-9-9--9-9--9-9-9-9-9--9-9--9-9-9-9-9--9-4--4-4-4-4-| 
|-8-7--7-7-7-7-7--5-7--7-7-7-7-7--8-7--7-7-7-7-7--5-2--2-2-2-2-| 


|---------------------------| 
|---------------------------| 
|---------------------------| 
|-4-----------4-------------| 
|-4--4-4-4-4--4--4-4-4-4----| 
|-2--2-2-2-2--2--2-2-2-2----| 

Then the second half of the song starts with this riff  

     PM|     PM|     PM|     PM|     PM|     PM|     PM| 
  
|---------------------------------------------------------| 
|---------------------------------------------------------| 
|---------------------------------------------------------| 
|-5--5-5--5--5-5--5--5-5--5--5-5--2--2-2--2--2-2--2--2-2--| 
|-3--3-3--3--3-3--3--3-3--3--3-3--3--3-3--3--3-3--3--3-3--| 
|-1--1-1--1--1-1--1--1-1--1--1-1--5--5-5--5--5-5--5--5-5--| 
                                                                 

  
|---------------------------------------------------------| 
|---------------------------------------------------------| 
|---------------------------------------------------------| 
|-2--2-2--5--5-5--5--5-5--5--5-5--5--5-5--2--2-2--2--2-2--| 
|-3--3-3--3--3-3--3--3-3--3--3-3--3--3-3--3--3-3--3--3-3--| 
|-5--5-5--1--1-1--1--1-1--1--1-1--1--1-1--5--5-5--5--5-5--| 


|--------------------------------------| 
|--------------------------------------| 
|--------------------------------------| 
|-2--2-2--/4---5-5--2-2--5-5--2-2-4----| 
|-3--3-3--/5---3-3--3-3--3-3--3-3-5----| 
|-5--5-5--/7---1-1--5-5--1-1--5-5-7----| 


This pattern repeats several times with differentiating picking patterns (mostly palm muted, listen  
to the song for the precise timing). After about 3 or 4 times it goes into the tapping harmony with the  
bass- 

|------------------------------------------------------------------------------------------------| 
|------------------------------------------------------------------------------------------------| 
|------------------------------------------------------------------------------------------------| 
|------------------------------------------------------------------------------------------------| 
|-19-0-12-19-0-h12-19-0-12-17-0-12-17-0-12-17-0-12-19-0-12-19-0-12-19-0-12-17-0-12-17-0-12-17-0--| 
|------------------------------------------------------------------------------------------------| 


|----------------------------------------------------------------------------------| 
|----------------------------------------------------------------------------------| 
|----------------------------------------------------------------------------------| 
|----------------------------------------------------------------------------------| 
|-12--15-0-8-15-0-8-15-0-8-17-0-8-17-0-8-17-0-8-15-0-8-15-0-8-15-0-8-17-0-8-17-0-8-| 
|----------------------------------------------------------------------------------| 


|--------------------------------------------------------------------------------------------| 
|--------------------------------------------------------------------------------------------| 
|--------------------------------------------------------------------------------------------| 
|--------------------------------------------------------------------------------------------| 
|-17-0-8--19-0-12-19-0-12-19-0-12-17-0-12-17-0-12-17-0-12-19-0-12-20-0-12-19-0-12-17-0-12-15-| 
|--------------------------------------------------------------------------------------------| 


|----------------------------------------------------------------------------------| 
|----------------------------------------------------------------------------------| 
|----------------------------------------------------------------------------------| 
|----------------------------------------------------------------------------------| 
|-0-12-17-0-12--15-0-8-15-0-8-15-0-8-17-0-8-17-0-8-17-0-8--22-0-8-20-0-8-19-0-8-20-| 
|----------------------------------------------------------------------------------| 


|----------------------| 
|----------------------| 
|----------------------| 
|----------------------| 
|-0-8-19-0-8-17-0-8----| 
|----------------------| 

It then continues into another solo - 

|--------------------------------------------------------------------| 
|--------------------------------------------------------------------| 
|-------------------------------------------9-12--5--5-5--7--7-7---9-| 
|-/7-9--7-9-10-9--7-9-7---------------------------7--7-7--9--9-9--10-| 
|-----------------------7-7-8--7-8-7----7-8-------0--0-0--0--0-0---0-| 
|------------------------------------10------------------------------| 


|-----------------------------------------------------------------------------------| 
|-----------------------------------------------------------------------------------| 
|--9--9--10--10-10---9-9-9-9-9-9-9-9-9-10-10-10-10-10-10-10-10--22-0-10-21-0-10-19--| 
|-10-10--12--12-12------------------------------------------------------------------| 
|--0--0---0---0--0------------------------------------------------------------------| 
|-----------------------------------------------------------------------------------| 


|----------------------------| 
|----------------------------| 
|-19-0-10-21-0-10-21-0-10----| 
|----------------------------| 
|----------------------------| 
|----------------------------| 

Before going back into the tapping part -  

|------------------------------------------------------------------------------------------------| 
|------------------------------------------------------------------------------------------------| 
|------------------------------------------------------------------------------------------------| 
|------------------------------------------------------------------------------------------------| 
|-19-0-h12-19-0-h12-19-0-12-17-0-12-17-0-12-17-0-12-19-0-12-19-0-12-19-0-12-17-0-12-17-0-12-17-0-| 
|------------------------------------------------------------------------------------------------| 


|----------------------------------------------------------------------------------| 
|----------------------------------------------------------------------------------| 
|----------------------------------------------------------------------------------| 
|----------------------------------------------------------------------------------| 
|-12--15-0-8-15-0-8-15-0-8-17-0-8-17-0-8-17-0-8-15-0-8-15-0-8-15-0-8-17-0-8-17-0-8-| 
|----------------------------------------------------------------------------------| 

|--------------------------------------------------------------------------------------------| 
|--------------------------------------------------------------------------------------------| 
|--------------------------------------------------------------------------------------------| 
|--------------------------------------------------------------------------------------------| 
|-17-0-8--19-0-12-19-0-12-19-0-12-17-0-12-17-0-12-17-0-12-19-0-12-20-0-12-19-0-12-17-0-12-15-| 
|--------------------------------------------------------------------------------------------| 


|----------------------------------------------------------------------------------| 
|----------------------------------------------------------------------------------| 
|----------------------------------------------------------------------------------| 
|----------------------------------------------------------------------------------| 
|-0-12-17-0-12--15-0-8-15-0-8-15-0-8-17-0-8-17-0-8-17-0-8--22-0-8-20-0-8-19-0-8-20-| 
|----------------------------------------------------------------------------------| 

|----------------------| 
|----------------------| 
|----------------------| 
|----------------------| 
|-0-8-19-0-8-17-0-8----| 
|----------------------| 

After this it goes back into the previous riff (second half of the song) -  

|---------------------------------------------------------| 
|---------------------------------------------------------| 
|---------------------------------------------------------| 
|-5--5-5--5--5-5--5--5-5--5--5-5--2--2-2--2--2-2--2--2-2--| 
|-3--3-3--3--3-3--3--3-3--3--3-3--3--3-3--3--3-3--3--3-3--| 
|-1--1-1--1--1-1--1--1-1--1--1-1--5--5-5--5--5-5--5--5-5--| 
                                                                 

|---------------------------------------------------------| 
|---------------------------------------------------------| 
|---------------------------------------------------------| 
|-2--2-2--5--5-5--5--5-5--5--5-5--5--5-5--2--2-2--2--2-2--| 
|-3--3-3--3--3-3--3--3-3--3--3-3--3--3-3--3--3-3--3--3-3--| 
|-5--5-5--1--1-1--1--1-1--1--1-1--1--1-1--5--5-5--5--5-5--| 


|--------------------------------------| 
|--------------------------------------| 
|--------------------------------------| 
|-2--2-2--/4---5-5--2-2--5-5--2-2-4----| 
|-3--3-3--/5---3-3--3-3--3-3--3-3-5----| 
|-5--5-5--/7---1-1--5-5--1-1--5-5-7----| 

It does this about 2 or 3 times before ending with that same riff using the same tempo as the beginning  
riff (again listen to the song for precise timing/picking) -  

|-------------------------------------------------------------| 
|-------------------------------------------------------------| 
|-------------------------------------------------------------| 
|-5-5--5-5-5-5-5--2-2--2-2-2-2-2--5-5--5-5-5-5-5--2-2--4-4----| 
|-3-3--3-3-3-3-3--3-3--3-3-3-3-3--3-3--3-3-3-3-3--3-3--5-5----| 
|-1-1--1-1-1-1-1--5-5--5-5-5-5-5--1-1--1-1-1-1-1--5-5--7-7----| 
    	

enviado porenviado por: brunblazkowski
cifra enviadaCorrigida por: sem correções
logo top cifrasComente
ico música do artistaMúsicas deste artista
ico curtiuCurtiu?
ico destaqueDestaque
Petaxxon Comunicação Online

Cifras.com.br - Melhor e mais completo site de cifras e tablaturas do Brasil Mais de 1 milhão de acordes de músicas cadastradas desde 2003
As informações contidas no nosso site são colaborações de seus usuários e podem conter erros, sendo assim, não nos responsabilizamos sobre nenhuma destas.

close
menos
mais
close
Cor dos acordes:

Cor da letra:

close
Alinhar acordes a direita Alinhar acordes a esquerda Alinhar acordes em baixo Alinhar acordes no topo
close
  Mostrar todos os acordes Esconder acordes muito fáceis Esconder acordes fáceis Esconder acordes intermediários
redimensionar
glossário