Cifras e Tablaturas
Steel Panther

Steel Panther

Ten Strikes You're Out

Cifras Cancelar Versão de Impressão
cifras

Steel Panther - Ten Strikes You're Out

fixar na tela  
Exibindo: vídeo-aula ver clipes redimensionar
  
Intro 

D#|-------------------------------------------| 
A#|-------------------------------------------| 
F#|-----5/6\5__p0--3p0---5/6\5__p0--3p0-------| 
C#|-----5/6\5__p0--3p0---5/6\5__p0--3p0-------|  play 3x 
G#|-5-------------------------------------5---| 
D#|-3-------------------------------------3---| 

D#|-------------------------------------------| 
A#|-------------------------------------------| 
F#|-----5/6\5__p0--3p0------5b7**-------------|  ** tremelo pick this bend 
C#|-----5/6\5__p0--3p0------------------------| 
G#|-5-----------------------------------------| 
D#|-3-----------------------------------------| 


Main Riff 

    Double time feel (Drums accent eighth notes) 
D#|------------------------------------------------| 
A#|------------------------------------------------| 
F#|-0---5/6\5__p0--3p0---5/6\5__p0--3p0---5---7\---|  play 3x 
C#|-0---5/6\5__p0--3p0---5/6\5__p0--3p0---3---5\---| 
G#|-x----------------------------------------------| 
D#|-3----------------------------------------------| 
    ** 

** Play this chord the first time only, then the last sliding chord is played across the beginning of repeats 

    riff ending 
D#|----------------------------------------------| 
A#|----------------------------------------------| 
F#|---5/6\5__p0--3p0---5/6\5__p0--3p0------------| 
C#|---5/6\5__p0--3p0---5/6\5__p0--3p0--------6---| 
G#|------------------------------------------4---| 
D#|----------------------------------------------| 



Verse 

D#|--------------------------|------------------------| 
A#|--------------------------|------------------------| 
F#|--------------------------|------------------------| 
C#|-5------------------------|-5----------------------| 
G#|-3------------------------|-3----------------------| 
D#|--------------------------|------------------------| 

D#|----------------------------------------------|----------------------------------------------| 
A#|----------------------------------------------|----------------------------------------------| 
F#|-0---5/6\5__p0--3p0---5/6\5__p0--3p0---5---7\-|---5/6\5__p0--3p0---5/6\5__p0--3p0------------| 
C#|-0---5/6\5__p0--3p0---5/6\5__p0--3p0---3---5\-|---5/6\5__p0--3p0---5/6\5__p0--3p0--------6---| 
G#|-x--------------------------------------------|------------------------------------------4---| 
D#|-3--------------------------------------------|----------------------------------------------| 

D#|--------------------------|------------------------| 
A#|--------------------------|------------------------| 
F#|--------------------------|------------------------| 
C#|-5------------------------|-8---------------10-----| 
G#|-3------------------------|-6---------------8------| 
D#|--------------------------|------------------------| 

D#|------------------------------------------------|--------------------------------------------| 
A#|------------------------------------------------|--------------------------------------------| 
F#|-0---5/6\5__p0--3p0---5/6\5__p0--3p0---5---7\---|---5/6\5__p0--3p0---5/6\5__--3p0------------| 
C#|-0---5/6\5__p0--3p0---5/6\5__p0--3p0---3---5\---|---5/6\5__p0--3p0---5/6\5__--3p0--------6---| 
G#|-x----------------------------------------------|----------------------------------------4---| 
D#|-3----------------------------------------------|--------------------------------------------| 




Chorus 

D#|----------------------------|---------------------------------| 
A#|----------------------------|---------------------------------| 
F#|----------------------------|---------------------------------| 
C#|-7___________w7__w7__w7__w7-|-----------------------------7---| 
G#|-5___________w5__w5__w5__w5-|-8---8---8---8---8---7---8---5---| 
D#|----------------------------|-6---6---6---6---6---5---6-------| 

D#|----------------------------------------| 
A#|----------------------------------------| 
F#|----------------------------------------| 
C#|-8--8---------10-10-10-10-10-10-10---10-| 
G#|-6--6--8--8---8--8--8--8--8--8--8-----8-| 
D#|-------6--6-----------------------------| 


Pre Verse 

D#|-------------------------------------------------| 
A#|-------------------------------------------------| 
F#|------5/6\5__p0--3p0---5/6\5__p0--3p0---5---7\---|  play 3x 
C#|-12---5/6\5__p0--3p0---5/6\5__p0--3p0---3---5\---| 
G#|-10----------------------------------------------| 
D#|-------------------------------------------------| 
    ** 

    ** Play this chord the first time only 

    riff ending 
D#|----------------------------------------------| 
A#|----------------------------------------------| 
F#|---5/6\5__p0--3p0---5/6\5__p0--3p0------------| 
C#|---5/6\5__p0--3p0---5/6\5__p0--3p0--------6---| 
G#|------------------------------------------4---| 
D#|----------------------------------------------| 



verse 2 

D#|--------------------------|------------------------| 
A#|--------------------------|------------------------| 
F#|--------------------------|------------------------| 
C#|-5------------------------|-5----------------------| 
G#|-3------------------------|-3----------------------| 
D#|--------------------------|------------------------| 

D#|------------------------------------------------|----------------------------------------------| 
A#|------------------------------------------------|----------------------------------------------| 
F#|-0---5/6\5__p0--3p0---5/6\5__p0--3p0---5---7\---|---5/6\5__p0--3p0---5/6\5__p0--3p0------------| 
C#|-0---5/6\5__p0--3p0---5/6\5__p0--3p0---3---5\---|---5/6\5__p0--3p0---5/6\5__p0--3p0--------6---| 
G#|-x----------------------------------------------|------------------------------------------4---| 
D#|-3----------------------------------------------|----------------------------------------------| 

D#|--------------------------|------------------------| 
A#|--------------------------|------------------------| 
F#|--------------------------|------------------------| 
C#|-5------------------------|-8---------------10-----| 
G#|-3------------------------|-6---------------8------| 
D#|--------------------------|------------------------| 

D#|------------------------------------------------|--------------------------------------------| 
A#|------------------------------------------------|--------------------------------------------| 
F#|-0---5/6\5__p0--3p0---5/6\5__p0--3p0---5---7\---|---5/6\5__p0--3p0---5/6\5__--3p0------------| 
C#|-0---5/6\5__p0--3p0---5/6\5__p0--3p0---3---5\---|---5/6\5__p0--3p0---5/6\5__--3p0--------6---| 
G#|-x----------------------------------------------|----------------------------------------4---| 
D#|-3----------------------------------------------|--------------------------------------------| 



Chorus 2 

D#|----------------------------|---------------------------------| 
A#|----------------------------|---------------------------------| 
F#|----------------------------|---------------------------------| 
C#|-7___________w7__w7__w7__w7-|-----------------------------7---| 
G#|-5___________w5__w5__w5__w5-|-8---8---8---8---8---7---8---5---| 
D#|----------------------------|-6---6---6---6---6---5---6-------| 

D#|----------------------------------------| 
A#|----------------------------------------| 
F#|----------------------------------------| 
C#|-8--8---------10-10-10-10-10-10-10---10-| 
G#|-6--6--8--8---8--8--8--8--8--8--8-----8-| 
D#|-------6--6-----------------------------| 



Pre Bridge 

D#|-------------------------------------------------| 
A#|-------------------------------------------------| 
F#|------5/6\5__p0--3p0---5/6\5__p0--3p0---5---7\---|  play 3x 
C#|-12---5/6\5__p0--3p0---5/6\5__p0--3p0---3---5\---| 
G#|-10----------------------------------------------| 
D#|-------------------------------------------------| 
    ** 

** Play this chord the first time only 

    riff ending 
D#|-----------------------------------------| 
A#|-----------------------------------------| 
F#|---5/6\5__p0--3p0------------------------| 
C#|---5/6\5__p0--3p0-----5--3---------------| 
G#|----------------------------5--4--3--1---| 
D#|-----------------------------------------| 



Bridge 

D#|---------------------------|---------------------------------| 
A#|---------------------------|---------------------------------| 
F#|-------------6-------------|---------------------------------| 
C#|-2-----------4-------------|-5-------------------------5--4--| 
G#|-2-------------------------|-3----------------------2--------| 
D#|-0-------------------------|---------------0--2--3-----------| 

D#|---------------------------|------------------------------| 
A#|---------------------------|------------------------------| 
F#|-4-----------6-------------|------------------------------| 
C#|-2-----------4-------------|-5-------------4--------------| 
G#|---------------------------|-3-------------2--------------| 
D#|---------------------------|------------------------------| 

D#|---------------------------------------------|--------------------------------------| 
A#|---------------------------------------------|-----------------------7--9----10-11--| 
F#|-0---5/6\5__p0--3p0---5/6\5__p0--3p0---------|----3---5-----6--7-----6--8-----9-10--| 
C#|-0---5/6\5__p0--3p0---5/6\5__p0--3p0---3---5-|----3---5-----6--7--------------------| 
G#|-x-------------------------------------3---5-|--------------------------------------| 
D#|-3-------------------------------------------|--------------------------------------| 



Solo 

D#|---------------------------|--------------------------------|----------------------------| 
A#|---------------------------|--------------------------------|----------------------------| 
F#|-8b9--------pb9-9-9-9r8----|-7b8~--------7-7b8-7--5-----5---|-5b7~~~~r5b7r5--------------| 
C#|------------------------9--|-------------------------7------|----------------7-----------| 
G#|---------------------------|--------------------------------|----------------------------| 
D#|---------------------------|--------------------------------|----------------------------| 

D#|--------------------11-14-------14-17b20r17-----------------|------------(17)-----17-------17-| 
A#|--------10-13-----13----------16-------------16~--14-16pb17-|-16pb17~~~~----16b17----16b17----| 
F#|------11-----11-14-------14-17------------------------------|---------------------------------| 
C#|-10-13------------------------------------------------------|---------------------------------| 
G#|------------------------------------------------------------|---------------------------------| 
D#|------------------------------------------------------------|---------------------------------| 

D#|-----------17------17------17-|--------------12--------------------------| 
A#|-16~~~~-------16~-----16~-----|-15~~~~-13-15----15b17--15-17-------------| 
F#|------------------------------|-----------------------------14h17--14~---| 
C#|------------------------------|------------------------------------------| 
G#|------------------------------|------------------------------------------| 
D#|------------------------------|------------------------------------------| 

D#|-t17p12h15-------------------------------------------------------------------------------------------| 
A#|----------t17p12h15---------t17p12h15----------------------------------------------------------------| 
F#|-------------------t17p12h14---------t17p12h14---------t17p12h14-------------------------------------| 
C#|----------------------------------------------t17p12h14---------t17p12h14---------t17p12h14----------| 
G#|-------------------------------------------------------------------------t17p12h14---------t17p12h14-| 
D#|-----------------------------------------------------------------------------------------------------| 

    play last tap (ran out of room), then start main riff again 
D#|------------------------------------------------------|-----------------------------------------------| 
A#|------------------------------------------------------|-----------------------------------------------| 
F#|------------0---5/6\5__p0--3p0---5/6\5__p0--3p0---0---|-0---5/6\5__p0--3p0----------------------------| 
C#|------------0---5/6\5__p0--3p0---5/6\5__p0--3p0---0---|-0---5/6\5__p0--3p0------------------------6---| 
G#|-t17p10h12--------------------------------------------|-------------------------------------------4---| 
D#|------------------------------------------------------|-----------------------------------------------| 



Last Verse 
D#|--------------------------|--------------------------| 
A#|--------------------------|--------------------------| 
F#|--------------------------|--------------------------| 
C#|-5------------------------|-5---3---5---3---5---3--5-| 
G#|-3------------------------|-5---3---5---3---5---3--5-| 
D#|--------------------------|--------------------------| 

D#|------------------------------------------------|----------------------------------------------| 
A#|------------------------------------------------|----------------------------------------------| 
F#|-0---5/6\5__p0--3p0---5/6\5__p0--3p0---5---7\---|---5/6\5__p0--3p0---5/6\5__p0--3p0------------| 
C#|-0---5/6\5__p0--3p0---5/6\5__p0--3p0---3---5\---|---5/6\5__p0--3p0---5/6\5__p0--3p0--------6---| 
G#|-x----------------------------------------------|------------------------------------------4---| 
D#|-3----------------------------------------------|----------------------------------------------| 

D#|--------------------------|------------------------| 
A#|--------------------------|------------------------| 
F#|--------------------------|------------------------| 
C#|-5------------------------|-8-----------------10---| 
G#|-3------------------------|-6-----------------8----| 
D#|--------------------------|------------------------| 

D#|------------------------------------------------|----------------------------------------| 
A#|------------------------------------------------|----------------------------------------| 
F#|-0---5/6\5__p0--3p0---5/6\5__p0--3p0---5---7\---|---5/6\5__p0--3p0---5/6\5__p0--3p0------| 
C#|-0---5/6\5__p0--3p0---5/6\5__p0--3p0---3---5\---|---5/6\5__p0--3p0---5/6\5__p0--3p0------| 
G#|-x----------------------------------------------|----------------------------------------| 
D#|-3----------------------------------------------|----------------------------------------| 



Outro Chorus 

D#|----------------------------------------|---------------------------------------| 
A#|-------------10------------------10-----|---------------------------------------| 
F#|-------------10------------------10-----|-------------7------------------7------| 
C#|-0-0-0-0-0-0---------0-0-0-0-0-0--------|-------------6------------------6------| 
G#|----------------------------------------|-------------8------------------8------| 
D#|----------------------------------------|-6-6-6-6-6-6-6------6-6-6-6-6-6-6------| 
    PM*********         ***********          ***********        *********** 


D#|--------------------------------------------| 
A#|--------------------------------------------| 
F#|--------------------------------------------| 
C#|-8-8-8-8-8-8--------------10--10--10--10----| 
G#|-6-6-6-6-6-6-8-8-8-8-8-8--8---8---8---8-----| 
D#|-------------6-6-6-6-6-6--------------------| 

D#|---------------------------------------------| 
A#|---------------------------------------------| 
F#|---------------------------------------------| 
C#|-10--12----10--12----10--12----10--12----10--| 
G#|--8--10-----8--10-----8--10-----8--10-----8--| 
D#|---------------------------------------------| 

D#|--------------------------------------------| 
A#|--------------------------------------------| 
F#|-7----5/6\5__p0--3p0---5/6\5__p0--3p0---5---| 
C#|-5----5/6\5__p0--3p0---5/6\5__p0--3p0---3---| play 3x 
G#|--------------------------------------------| 
D#|--------------------------------------------| 

D#|-----------------------------------------| 
A#|-----------------------------------------| 
F#|---5/6\5__p0--3p0------------------------| 
C#|---5/6\5__p0--3p0-----5--3---------5--5--| 
G#|----------------------------5--4---5--5--| 
D#|-----------------------------------3--3--| 



************************************ 

| x   Dead note 
| (n) Ghost note 
| h   Hammer-on 
| p   Pull-off 
| t   tapping 
| b   Bend 
| r   Release 
| pb  Pre-bend 
| /   Slide up 
| \   Slide down 
| ~   Vibrato 
| PM  Palm mute 

************************************ 
  

top 5 | steel panther
top heavy metal
Outras músicas do artista letras do(a) Steel Panther
Top cifras »Top artistas »
Petaxxon Comunicação Online
Cifras.com.br - Melhor e mais completo site de cifras e tablaturas do Brasil
Mais de 1 milhão de acordes de músicas cadastradas desde 2003
As informações contidas no nosso site são colaborações de seus usuários e podem conter erros, sendo assim, não nos responsabilizamos sobre nenhuma destas.
close
menos
mais
close
Cor dos acordes:

Cor da letra:

 

save
close
close
 
redimensionar