Cifras e Tablaturas
Steel Panther

Steel Panther

Wasted Too Much Time

Cifras Cancelar Versão de Impressão
cifras

Steel Panther - Wasted Too Much Time

fixar na tela  
Exibindo: vídeo-aula ver clipes redimensionar
  
Intro 

    Lead 
D#|-------------------------|-----------------------|-----------------------|-------------------------| 
A#|-------------------------|-----------------------|-----------------------|-------------------------| 
F#|-------------------------|-----------------4--5--|-7~------5-7~-------5--|-7--5--4-----4-----------| 
C#|-------------2--4--5--4--|-5~--------5--7--------|-----------------------|----------5-----5--4-----| 
G#|-3--2--3--5--------------|-----------------------|-----------------------|----------------------5--| 
D#|-------------------------|-----------------------|-----------------------|-------------------------| 

D#|-------------------------|-----------------------|-----------------------|-------------------------| 
A#|-------------------------|-----------------------|-----------------------|-------------------------| 
F#|-------------------------|-----------------4-----|-----------------------|-------------------------| 
C#|-------------2--4--5--4--|-5~--------5--7-----5--|-7~--------------------|-------------------------| 
G#|-3--2--3--5--------------|-----------------------|-----------------------|-------------------------| 
D#|-------------------------|-----------------------|-----------------------|-------------------------| 


Intro Rhythm 

D#|-------------------------|-----------------------|-----------------------|-----------------------| 
A#|-------------------------|-----------------------|-----------------------|-----------------------| 
F#|-------------------------|-----------------------|-----------------------|-----------------------| 
C#|-5-----5--------5--------|-5-----5-------5-------|-7-----7--------7------|-7-----7--------7------| 
G#|-3-----3--------3--------|-5-----5-------5-------|-5-----5--------5------|-5-----5--------5------| 
D#|-3-----3--------3--------|-3-----3-------3-------|-5-----5--------5------|-5-----5--------5------| 
          PM                        PM                      PM                      PM  
  
D#|-------------------------|-----------------------|---------------------------| 
A#|-------------------------|-----------------------|---------------------------| 
F#|-------------------------|-----------------------|---------------------------| 
C#|-5-----5--------5--------|-5-----5-------5-------|-7-------------------------| 
G#|-3-----3--------3--------|-5-----5-------5-------|-5-------------------------| 
D#|-3-----3--------3--------|-3-----3-------3-------|-5-------------------------| 
          PM                        PM 


Verse 

    play 2x 
D#|-------------------------|-------------------------|---------------------|---------------------| 
A#|-------------------------|-------------------------|---------------------|---------------------| 
F#|-------0-----------0-----|-------0-----------0-----|-------0-------------|-0-------------------| 
C#|----5--------------------|----7-----------7--------|----9----------------|-7-------------------| 
G#|-3--------------5--------|-5-----------6-----------|-7-------------------|-6-------------------| 
D#|-------------3-----------|-------------------------|---------------------|---------------------| 




Chorus Rhythm 

    same PM's as before on 2nd chord in each bar 
D#|-------------------------|-----------------------|-----------------------|-----------------------| 
A#|-------------------------|-----------------------|-----------------------|-----------------------| 
F#|-------------------------|-----------------------|-----------------------|-----------------------| 
C#|-5-----5--------5--------|-5-----5-------5-------|-7-----7--------7------|-7-----7--------7------| 
G#|-3-----3--------3--------|-5-----5-------5-------|-5-----5--------5------|-5-----5--------5------| 
D#|-3-----3--------3--------|-3-----3-------3-------|-5-----5--------5------|-5-----5--------5------| 

D#|-------------------------|-----------------------|-----------------------|-----------------------| 
A#|-------------------------|-----------------------|-----------------------|-----------------------| 
F#|-------------------------|-----------------------|-----------------------|-----------------------| 
C#|-5-----5--------5--------|-5-----5-------5-------|-7-----7----------9----|-----------------------| 
G#|-3-----3--------3--------|-5-----5-------5-------|-5-----5----------7----|-----------------------| 
D#|-3-----3--------3--------|-3-----3-------3-------|-5-----5----------7----|-----------------------| 

D#|-------------------------|-------------------------|-----------------------| 
A#|-------------------------|-------------------------|-----------------------| 
F#|-------------------------|-------------------------|-----------------------| 
C#|-------------------------|-5-----5--------5--------|-4-----4-------4-------| 
G#|-------7-----7--5~-------|-3-----3--------3--------|-2-----2-------2-------| 
D#|-4--7--------------------|-3-----3--------3--------|-2-----2-------2-------| 


Chorus Lead Licks 

    4th bar of rhythm part 
D#|-------------------------|-------------------|------------------|--------------------| 
A#|-------------------------|-------------------|------------------|--------------------| 
F#|-------------------------|-------------------|------------------|--------------------| 
C#|-4--5--7-----5--4--------|-------------------|------------------|-----------------6--| 
G#|-------------------5-----|-(5~)--------------|-7----------------|--------------------| 
D#|-------------------------|-------------------|------------------|--------------------| 

D#|-------------------------|-------------------------|-------------------------| 
A#|-------------------------|-------------------------|-------------------------| 
F#|-------------------------|-------9-----9--7--------|-5~----------------------| 
C#|-------------------------|-6--9--------------------|-------------------------| 
G#|-------------------------|-------------------------|-------------------------| 
D#|-------------------------|-------------------------|-------------------------| 




PreVerse 

    Lead, with octave + pedal - Rhythm Guitar plays Intro Rhythm chords 
D#|-------------------------|-----------------------|-----------------------|-------------------------| 
A#|-------------------------|-----------------------|-----------------------|-------------------------| 
F#|-------------------------|-----------------4--5--|-7~------5-7~-------5--|-7--5--4-----4-----------| 
C#|-------------2--4--5--4--|-5~--------5--7--------|-----------------------|----------5-----5--4-----| 
G#|-3--2--3--5--------------|-----------------------|-----------------------|----------------------5--| 
D#|-------------------------|-----------------------|-----------------------|-------------------------| 

D#|-------------------------|-----------------------|-----------------------|-------------------------| 
A#|-------------------------|-----------------------|-----------------------|-------------------------| 
F#|-------------------------|-----------------4-----|-----------------------|-------------------------| 
C#|-------------2--4--5--4--|-5~--------5--7-----5--|-7~--------------------|-------------------------| 
G#|-3--2--3--5--------------|-----------------------|-----------------------|-------------------------| 
D#|-------------------------|-----------------------|-----------------------|-------------------------| 



verse 2 

    play 2x 
D#|-------------------------|-------------------------|---------------------|---------------------| 
A#|-------------------------|-------------------------|---------------------|---------------------| 
F#|-------0-----------0-----|-------0-----------0-----|-------0-------------|-0-------------------| 
C#|----5--------------------|----7-----------7--------|----9----------------|-7-------------------| 
G#|-3--------------5--------|-5-----------6-----------|-7-------------------|-6-------------------| 
D#|-------------3-----------|-------------------------|---------------------|---------------------| 



Chorus 2 Rhythm 

D#|-------------------------|-----------------------|-----------------------|-----------------------| 
A#|-------------------------|-----------------------|-----------------------|-----------------------| 
F#|-------------------------|-----------------------|-----------------------|-----------------------| 
C#|-5-----5--------5--------|-5-----5-------5-------|-7-----7--------7------|-7-----7--------7------| 
G#|-3-----3--------3--------|-5-----5-------5-------|-5-----5--------5------|-5-----5--------5------| 
D#|-3-----3--------3--------|-3-----3-------3-------|-5-----5--------5------|-5-----5--------5------| 

D#|-------------------------|-----------------------|-----------------------|-----------------------| 
A#|-------------------------|-----------------------|-----------------------|-----------------------| 
F#|-------------------------|-----------------------|-----------------------|-----------------------| 
C#|-5-----5--------5--------|-5-----5-------5-------|-7-----7----------9----|-----------------------| 
G#|-3-----3--------3--------|-5-----5-------5-------|-5-----5----------7----|-----------------------| 
D#|-3-----3--------3--------|-3-----3-------3-------|-5-----5----------7----|-----------------------| 

D#|-------------------------|-----------------------|------------------------|------------------------| 
A#|-------------------------|-----------------------|------------------------|------------------------| 
F#|-------------------------|-----------------------|------------------------|------------------------| 
C#|-------------------------|-5-----5-------5-------|-4-----4-----4-----4----|-4-----4-----4-----4----| 
G#|-------7-----7--5~-------|-3-----3-------3-------|-2-----2-----2-----2----|-2-----2-----2-----2----| 
D#|-4--7--------------------|-3-----3-------3-------|------------------------|------------------------| 


Chorus 2 Lead Licks 

    Lead, with octave + pedal: 

    4th bar of rhythm part 
D#|-------------------------|-------------------|------------------|--------------------| 
A#|-------------------------|-------------------|------------------|--------------------| 
F#|-------------------------|-------------------|------------------|--------------------| 
C#|-4--5--7-----5--4--------|-------------------|------------------|-----------------6--| 
G#|-------------------5-----|-(5~)--------------|-7----------------|--------------------| 
D#|-------------------------|-------------------|------------------|--------------------| 

D#|-------------------------|-------------------------|-------------------------| 
A#|-------------------------|-------------------------|-------------------------| 
F#|-------------------------|-------9-----9--7--------|-5~----------------------| 
C#|-------------------------|-6--9--------------------|-------------------------| 
G#|-------------------------|-------------------------|-------------------------| 
D#|-------------------------|-------------------------|-------------------------| 

D#|-------------------------|-------------------------|-------------------------| 
A#|-------------------------|-------------4--------4--|-5~----------------------| 
F#|----------2PH---------2--|----------4-----2--4-----|-------------------------| 
C#|----1--4--------1--4-----|----1--4-----------------|-------------------------| 
G#|-2-----------2-----------|-2-----------------------|-------------------------| 
D#|-------------------------|-------------------------|-------------------------| 



Bridge 

D#|----------------------|------------------------|-----------------------|----------------------| 
A#|----------------------|------------------------|-----------------------|----------------------| 
F#|-2-----2--------------|-2-----2----------------|-5-----5---------------|-5-----5--------------| 
C#|-2-----2--------------|-2-----2----------------|-5-----5---------------|-5-----5--------------| 
G#|-0-----0--------------|-0-----0--------2~------|-3-----3--------2------|-3-----3--------5-----| 
D#|---------------3b4----|------------------------|-----------------------|----------------------| 

D#|-------------------------|-------------------------|-------------------------|-------------------------| 
A#|-------------------------|-------------------------|-------------------------|-------------------------| 
F#|-------------------------|-------------------------|-------------------------|-------------------------| 
C#|-------------------------|-------------------------|-------------------------|-------------------------| 
G#|-------------------------|-------------------------|-------------------------|-2-----2-----2-----2-----| 
D#|-3--3--3--3--3--3--3--3--|-2--2--2--2--2--2--2--2--|-1--1--1--1--1--1--1--1--|-0-----0-----0-----0-----| 

D#|-------------------------| 
A#|-------------------------| 
F#|-------------------------| 
C#|-2--0--------------------| 
G#|-------3--2--0-----------| 
D#|----------------3--2--0--| 



Solo 
    Rhythm riff is "Intro Rhythm" part. 
D#|-------------------------|-----------------------|-----------------------|------------------------| 
A#|-------------------------|-----------------------|-----------------------|------------------------| 
F#|-------------------------|-----------------6--7--|-9_______b11r9_____b11-|-9b11r9b11--9--7--9--7--| 
C#|-------------4--6--7--6--|-7~--------7--9--------|-----------------------|------------------------| 
G#|-5--4--5--7--------------|-----------------------|-----------------------|------------------------| 
D#|-------------------------|-----------------------|-----------------------|------------------------| 

D#|-------------------------|-----------------------|-----------------------------| 
A#|-7-----7-----------9-----|-10-----10-------14----|------12-12-----12-12-----12-| 
F#|-9b11--9b11--------11b13-|-12b14--12b14----14b16-|-14b16-----14b16-----14b16---| 
C#|-------------------------|-----------------------|-----------------------------| 
G#|-------------------------|-----------------------|-----------------------------| 
D#|-------------------------|-----------------------|-----------------------------| 

D#|---------------------------|------------------------|------------------------| 
A#|-12-----12-12-----12-12-12-|------------------------|------------------------| 
F#|---14b16-----14b16---------|-16b18r16-14------------|-16b18r16-14------------| 
C#|---------------------------|-------------16-14~-----|-------------16-14~-----| 
G#|---------------------------|------------------------|------------------------| 
D#|---------------------------|------------------------|------------------------| 

D#|---------------------------|-----------------------|---------------------------| 
A#|---------------------------|-----------------------|---------------------------| 
F#|---------------------------|-----------------------|-9b11--9b11--9b11r9--7--7--| 
C#|-16b17r16-14-16-14---------|-----14----------------|---------------------------| 
G#|-------------------14p12---|-/11-------------------|---------------------------| 
D#|------------------------12-|-----------------------|---------------------------| 

D#|---------------------------|-----------------------|-------------------------| 
A#|---------------------------|-----------------------|-------------------------| 
F#|---------------------------|----9~~----------------|-------------------------| 
C#|-9b11--9b11--9b11r9--7--7--|-6---------------------|-------------------------| 
G#|---------------------------|-----------------------|-------------------------| 
D#|---------------------------|-----------------------|-------------------------| 



Outro Chorus 

D#|-------------------------|-------------------------| 
A#|-------------------------|-------------------------| 
F#|-------------------------|-------------------------| 
C#|-------------------------|-------------------------| 
G#|-------------------------|-------------------------| 
D#|-0--0--0--0--0--0--0--0--|-0--0--0--0--0--0--0--0--| 

    Different Chorus rhythm 
D#|-------------------------|-------------------------|-------------------------| 
A#|-------------------------|-------------------------|-------------------------| 
F#|-------------------------|-------------------------|-------------------------| 
C#|-7-----7-----7-----7-----|-------------------------|-------------------------| 
G#|-5-----5-----5-----5-----|-7-----7-----7-----7-----|-2-----2-----2-----2-----| 
D#|-------------------------|-5-----5-----5-----5-----|-0-----0-----0-----0-----| 

D#|-------------------------|-------------------------|-------------------------| 
A#|-------------------------|-------------------------|-------------------------| 
F#|-------------------------|-------------------------|-------------------------| 
C#|-------------------------|-7-----7-----7-----7-----|-------------------------| 
G#|-2-----2-----2-----2-----|-5-----5-----5-----5-----|-7-----7-----7-----7-----| 
D#|-0-----0-----0-----0-----|-------------------------|-5-----5-----5-----5-----| 

D#|-------------------------|-------------------------| 
A#|-------------------------|-------------------------| 
F#|-------------------------|-------------------------| 
C#|-------------------------|-------------------------| 
G#|-------------------------|-------------2--2--4--4--| 
D#|-0--0--0--2--2--2--4--4--|-4--5--5--5--------------| 

    add lead part here 
D#|-------------------------|-------------------------|-------------------------| 
A#|-------------------------|-------------------------|-------------------------| 
F#|-------------------------|-------------------------|-------------------------| 
C#|-7--7--7--7--7--7--7--7--|-------------------------|-------------------------| 
G#|-5--5--5--5--5--5--5--5--|-7--7--7--7--7--7--7--7--|-2--2--2--2--2--2--2--2--| 
D#|-------------------------|-5--5--5--5--5--5--5--5--|-0--0--0--0--0--0--0--0--| 

D#|-------------------------|-------------------------|-------------------------| 
A#|-------------------------|-------------------------|-------------------------| 
F#|-------------------------|-------------------------|-------------------------| 
C#|-------------------------|-7--7--7--7--7--7--7--7--|-------------------------| 
G#|-2--2--2--2--2--2--2--2--|-5--5--5--5--5--5--5--5--|-7--7--7--7--7--7--7--7--| 
D#|-0--0--0--0--0--0--0--0--|-------------------------|-5--5--5--5--5--5--5--5--| 

D#|-------------------------|-------------------------| 
A#|-------------------------|-------------------------| 
F#|-------------------------|-------------------------| 
C#|-------------------------|-4--4--4--4--4--4--4--4--| 
G#|-2--2--2--2--2--2--2--2--|-2--2--2--2--2--2--2--2--| 
D#|-0--0--0--0--0--0--0--0--|-------------------------| 

D#|-------------------------|-------------------------|-------------------------| 
A#|-------------------------|-------------------------|-------------------------| 
F#|-------------------------|-------------------------|-------------------------| 
C#|-7--7--7--7--7--7--7--7--|-------------------------|-------------------------| 
G#|-5--5--5--5--5--5--5--5--|-7--7--7--7--7--7--7--7--|-2--2--2--2--2--2--2--2--| 
D#|-------------------------|-5--5--5--5--5--5--5--5--|-0--0--0--0--0--0--0--0--| 

                              slower 
D#|-------------------------|-------------------------|-----------------| 
A#|-------------------------|-------------------------|-----------------| 
F#|-------------------------|-------------------------|-----------------| 
C#|-------------------------|-7-----------------------|-----------------| 
G#|-2--2--2--2--2--2--2--2--|-5-----------7-----------|-2---------------| 
D#|-0--0--0--0--0--0--0--0--|-------------5-----------|-0---------------| 


Lead Outro 
    add where mentioned above 

D#|-12-12-12-12-12-12-12-12-| 
A#|-------------------------| 
F#|-------------------------|  repeat until tempo slows (last 2 bars) 
C#|-------------------------| 
G#|-------------------------| 
D#|-------------------------| 


 
  

top 5 | steel panther
top heavy metal
Outras músicas do artista letras do(a) Steel Panther
Top cifras »Top artistas »
Petaxxon Comunicação Online
Cifras.com.br - Melhor e mais completo site de cifras e tablaturas do Brasil
Mais de 1 milhão de acordes de músicas cadastradas desde 2003
As informações contidas no nosso site são colaborações de seus usuários e podem conter erros, sendo assim, não nos responsabilizamos sobre nenhuma destas.
close
menos
mais
close
Cor dos acordes:

Cor da letra:

 

save
close
close
 
redimensionar