Cifras e Tablaturas
Stone Sour

Stone Sour

Taipei Person Allah Tea

Cifras Cancelar Versão de Impressão
cifras

Stone Sour - Taipei Person Allah Tea

fixar na tela  
Exibindo: vídeo-aula ver clipes redimensionar

Tom:

  
Intro (0:00 - 0:35) 

Guitar 1 (Electric) (0:00 - 0:24) (Riff 1) 
Eb|-------------------------------------------------|--------------------------------------------------| 
Bb|-------------------------------------------------|--------------------------------------------------| 
Gb|-------------------------------------------------|--------------------------------------------------| 
Db|-9-----9----9----9-----9----9----9-----9----9----|--9-----9----9----9-----9----9----9-----9----9----| 
Ab|-7-----7----7p0--7-----7----7p0--7-----7----7p0--|--7-----7----7p0--7-----7----7p0--7-----7----7p0--| 
Eb|-0--0--0--0-0-0--0--0--0--0-0-0--0--0--0--0-0-0--|--0--0--0--0-0-0--0--0--0--0-0-0--0--0--0--0-0-0--| 

Eb|-------------------------------------------------|--------------------------------------------------------| 
Bb|-------------------------------------------------|--------------------------------------------------------| 
Gb|-------------------------------------------------|--------------------------------------------------------| 
Db|-9-----9----9----5-5-5-5-3-3-3-3--9-----9----9---|-9-----9----9----9-----9----9---12-12-12-12-10-10-10-10-| 
Ab|-7-----7----7p0--5-5-5-5-3-3-3-3--7-----7----7p0-|-7-----7----7p0--7-----7----7p0-10-10-10-10--8--8--8--8-| 
Eb|-0--0--0--0-0-0--3-3-3-3-1-1-1-1--0--0--0--0-0-0-|-0--0--0--0-0-0--0--0--0--0-0-0-------------------------| 

Eb|-------------------------------------------------|--------------------------| 
Bb|-------------------------------------------------|--------------------------| 
Gb|-------------------------------------------------|--------------------------| 
Db|-9-----9----9----9-----9----9----9-----9----9----|-12-12-12-12-10-10-10-10--| 
Ab|-7-----7----7p0--7-----7----7p0--7-----7----7p0--|-10-10-10-10--8--8--8--8--| 
Eb|-0--0--0--0-0-0--0--0--0--0-0-0--0--0--0--0-0-0--|--------------------------| 

Guitar 1 (Electric) (0:24 - 0:35) (Riff 1a) 
Eb|-----------------------------------------------|---------------------------| 
Bb|-----------------------------------------------|---------------------------| 
Gb|-----------------------------------------------|---------------------------| 
Db|-9-----9-----9-10\9----9----9/10\9---9---9/10--|--12-12-12-12-10-10-10-10--| 
Ab|-7-----7-----7--8\7----7----7/-8\7---7---7/-8--|--10-10-10-10--8--8--8--8--| 
Eb|-0--0--0--0--0-------0-0--0-0------0-0-0-------|---------------------------| 

Eb|-----------------------------------------------|---------------------------| 
Bb|-----------------------------------------------|---------------------------| 
Gb|-----------------------------------------------|---------------------------| 
Db|-9-----9-----9/10\9----9----9/10\9---9---9/10--|--12-12-12-12-10-10-10-10--| 
Ab|-7-----7-----7/-8\7----7----7/-8\7---7---7/-8--|--10-10-10-10--8--8--8--8--| 
Eb|-0--0--0--0--0-------0-0--0-0------0-0-0-------|---------------------------| 

Guitar 2 (Electric) (0:24 - 0:35) (Riff 1b) 
Eb|-----------------------------------------------|---------------------------| 
Bb|-----------------------------------------------|---------------------------| 
Gb|-9~----------9/10\9~--------9/10\9-------9/10--|-12-12-12-12-10-10-10-10---| 
Db|-----------------------------------------------|---------------------------| 
Ab|-----------------------------------------------|---------------------------| 
Eb|-----------------------------------------------|---------------------------| 

Eb|-----------------------------------------------|---------------------------| 
Bb|-----------------------------------------------|---------------------------| 
Gb|-9~----------9/10\9~--------9/10\9-------9/10--|-12-12-12-12-10-10-10-10---| 
Db|-----------------------------------------------|---------------------------| 
Ab|-----------------------------------------------|---------------------------| 
Eb|-----------------------------------------------|---------------------------| 

verse 1 (0:35 - 0:46) 
Guitar 1 (Electric) (0:35 - 0:46) (Riff 2) 
Eb|---------------------------------|----------------------------------| 
Bb|---------------------------------|----------------------------------| 
Gb|--9~-----------------------------|----------------------------------| 
Db|--9~-----------------------------|----------------------------------| 
Ab|--7~-----------------------------|----------------------------------| 
Eb|--0~-----------------------------|----------------------------------| 

Guitar 2 (Electric) (0:35 - 0:46) (Riff 2a)   
Eb|---------------------------|----------------------------------| 
Bb|----x--------------------------|----------------------------------| 
Gb|----9~-------------------------|----------------------------------| 
Db|-------------------------------|----------------------------------| 
Ab|-------------------------------|----------------------------------| 
Eb|-------------------------------|----------------------------------| 

Pre Chorus 1 (0:46 - 1:09) 

Guitar 1 (Electric) (0:46 - 1:09) (Riff 3) 
Eb|-----------------------------------|----------------------------------------------------| 
Bb|-----------------------------------|----------------------------------------------------| 
Gb|--9-----9-8----5----5-4----4-5--7--|--9----12-10----7----10-9----5----9-7----4----5--7--| 
Db|--9-----9-8----5----5-4----4-5--7--|--9----12-10----7----10-9----5----9-7----4----5--7--| 
Ab|--7-----7-6----3----3-2----2-3--5--|--7----10--8----5-----8-7----3----7-5----2----3--5--| 
Eb|--0--------------------------------|--0-------------------------------------------------| 

Guitar 2 (Electric) (0:46 - 1:09) (Riff 3a) 
Eb|-----------------------------------|----------------------------------------------------| 
Bb|-----------------------------------|----------------------------------------------------| 
Gb|-----------------------------------|--9----12-10----7----10-9----5----9-7----4----5--7--| 
Db|--9-----9-8----5----5-4----4-5--7--|--x-----x--x----x-----x-x----x----x-x----x----x--x--| 
Ab|--7-----7-6----3----3-2----2-3--5--|--7----10--8----5-----8-7----3----7-5----2----3--5--| 
Eb|--7-----7-6----3----3-2----2-3--5--|--0-------------------------------------------------| 

Chorus 1 (1:09 - 1:29) 

Guitar 1 (Electric) (1:09 - 1:29) (Riff 4) 
Eb|------------------------------------------|----------------------------------------------| 
Bb|------------------------------------------|----------------------------------------------| 
Gb|--5----2----8/9-9-9-9-9-9--8/9-9-9-9-9-9--|--5----2----8/9-9-9-9-9-9-9--8/9-9-9-9-9-9-9--| 
Db|--5----2----8/9-9-9-9-9-9--8/9-9-9-9-9-9--|--5----2----8/9-9-9-9-9-9-9--8/9-9-9-9-9-9-9--| 
Ab|--3----0----6/7-7-7-7-7-7--6/7-7-7-7-7-7--|--3----0----6/7-7-7-7-7-7-7--6/7-7-7-7-7-7-7--| 
Eb|------------------------------------------|----------------------------------------------| 

Eb|---------------------------------|----------------------------------| 
Bb|---------------------------------|----------------------------------| 
Gb|--5----2---------------5----2-2--|----------------------------------| 
Db|--5----2----2----4-----5----2-2--|----------------------------------| 
Ab|--3----0----2----4-----3----0-0--|----------------------------------| 
Eb|------------0----2---------------|----------------------------------| 

Guitar 2 (Electric) (1:09 - 1:29) (Riff 4a) 
Eb|---------------------------------------|--------------------------------------| 
Bb|---------------------------------------|--------------------------------------| 
Gb|---------------------------------------|--------------------------------------| 
Db|-----4~-5~----7~-6~----7~-6~-----7~-6~-|-----4~-5~----7~-6~----7~-6~----7~-6~-| 
Ab|--7~-------7~-------7~--------7~-------|--7~-------7~-------7~-------7~-------| 
Eb|---------------------------------------|--------------------------------------| 

Post Chorus 1 (1:30 - 1:41) 
Guitar 1 (Electric) (1:30 - 1:41) (Riff 1a) 
Eb|-----------------------------------------------|---------------------------| 
Bb|-----------------------------------------------|---------------------------| 
Gb|-----------------------------------------------|---------------------------| 
Db|-9-----9-----9-10\9----9----9/10\9---9---9/10--|--12-12-12-12-10-10-10-10--| 
Ab|-7-----7-----7--8\7----7----7/-8\7---7---7/-8--|--10-10-10-10--8--8--8--8--| 
Eb|-0--0--0--0--0-------0-0--0-0------0-0-0-------|---------------------------| 

Eb|-----------------------------------------------|---------------------------| 
Bb|-----------------------------------------------|---------------------------| 
Gb|-----------------------------------------------|---------------------------| 
Db|-9-----9-----9/10\9----9----9/10\9---9---9/10--|--12-12-12-12-10-10-10-10--| 
Ab|-7-----7-----7/-8\7----7----7/-8\7---7---7/-8--|--10-10-10-10--8--8--8--8--| 
Eb|-0--0--0--0--0-------0-0--0-0------0-0-0-------|---------------------------| 

Guitar 2 (Electric) (1:30 - 1:41) (Riff 1b) 
Eb|-----------------------------------------------|---------------------------| 
Bb|-----------------------------------------------|---------------------------| 
Gb|-9~----------9/10\9~--------9/10\9-------9/10--|-12-12-12-12-10-10-10-10---| 
Db|-----------------------------------------------|---------------------------| 
Ab|-----------------------------------------------|---------------------------| 
Eb|-----------------------------------------------|---------------------------| 

Eb|-----------------------------------------------|---------------------------| 
Bb|-----------------------------------------------|---------------------------| 
Gb|-9~----------9/10\9~--------9/10\9-------9/10--|-12-12-12-12-10-10-10-10---| 
Db|-----------------------------------------------|---------------------------| 
Ab|-----------------------------------------------|---------------------------| 
Eb|-----------------------------------------------|---------------------------| 

verse 2(1:41 - 1:52) 

Guitar 1 (Electric) (1:41 - 1:52) (Riff 2) 
Eb|---------------------------------|----------------------------------| 
Bb|---------------------------------|----------------------------------| 
Gb|--9~-----------------------------|----------------------------------| 
Db|--9~-----------------------------|----------------------------------| 
Ab|--7~-----------------------------|----------------------------------| 
Eb|--0~-----------------------------|----------------------------------| 

Guitar 2 (Electric) (1:41 - 1:52) (Riff 2a) 
Eb|-------------------------------|----------------------------------| 
Bb|----x--------------------------|----------------------------------| 
Gb|----9~-------------------------|----------------------------------| 
Db|-------------------------------|----------------------------------| 
Ab|-------------------------------|----------------------------------| 
Eb|-------------------------------|----------------------------------| 

PreChorus 2 (1:53 - 2:15) 

Guitar 1 (Electric) (1:53 - 2:15) (Riff 3) 
Eb|-----------------------------------|----------------------------------------------------| 
Bb|-----------------------------------|----------------------------------------------------| 
Gb|--9-----9-8----5----5-4----4-5--7--|--9----12-10----7----10-9----5----9-7----4----5--7--| 
Db|--9-----9-8----5----5-4----4-5--7--|--9----12-10----7----10-9----5----9-7----4----5--7--| 
Ab|--7-----7-6----3----3-2----2-3--5--|--7----10--8----5-----8-7----3----7-5----2----3--5--| 
Eb|--0--------------------------------|--0-------------------------------------------------| 

Guitar 2 (Electric) (1:53 - 2:15) (Riff 3a) 
Eb|-----------------------------------|----------------------------------------------------| 
Bb|-----------------------------------|----------------------------------------------------| 
Gb|-----------------------------------|--9----12-10----7----10-9----5----9-7----4----5--7--| 
Db|--9-----9-8----5----5-4----4-5--7--|--x-----x--x----x-----x-x----x----x-x----x----x--x--| 
Ab|--7-----7-6----3----3-2----2-3--5--|--7----10--8----5-----8-7----3----7-5----2----3--5--| 
Eb|--7-----7-6----3----3-2----2-3--5--|--0-------------------------------------------------| 

Chorus 2 (2:16 - 2:36) 

Guitar 1 (Electric) (2:16 - 2:34) (Riff 4*) 
Eb|------------------------------------------|----------------------------------------------| 
Bb|------------------------------------------|----------------------------------------------| 
Gb|--5----2----8/9-9-9-9-9-9--8/9-9-9-9-9-9--|--5----2----8/9-9-9-9-9-9-9--8/9-9-9-9-9-9-9--| 
Db|--5----2----8/9-9-9-9-9-9--8/9-9-9-9-9-9--|--5----2----8/9-9-9-9-9-9-9--8/9-9-9-9-9-9-9--| 
Ab|--3----0----6/7-7-7-7-7-7--6/7-7-7-7-7-7--|--3----0----6/7-7-7-7-7-7-7--6/7-7-7-7-7-7-7--| 
Eb|------------------------------------------|----------------------------------------------| 

Eb|-------------------------------------------|----------------------------------| 
Bb|-------------------------------------------|----------------------------------| 
Gb|--5----2---------------5-5-5-5-5-5----2-2--|----------------------------------| 
Db|--5----2----2----4-----5-5-5-5-5-5----2-2--|----------------------------------| 
Ab|--3----0----2----4-----3-3-3-3-3-3----0-0--|----------------------------------| 
Eb|------------0----2-------------------------|----------------------------------| 

Guitar 2 (Electric) (2:16 - 2:34) (Riff 4a) 
Eb|---------------------------------------|--------------------------------------| 
Bb|---------------------------------------|--------------------------------------| 
Gb|---------------------------------------|--------------------------------------| 
Db|-----4~-5~----7~-6~----7~-6~-----7~-6~-|-----4~-5~----7~-6~----7~-6~----7~-6~-| 
Ab|--7~-------7~-------7~--------7~-------|--7~-------7~-------7~-------7~-------| 
Eb|---------------------------------------|--------------------------------------| 

Bridge (2:35 - 3:09) 

Guitar 1 (Electric) (2:35 - 2:59) (Riff 5) 
Eb|---------------------------------|------------------------------|----------------------------------| 
Bb|---------------------------------|------------------------------|----------------------------------| 
Gb|---------------------------------|------------------------------|----------------------------------| 
Db|---------------------------------|-----------------------5---8--|----------------------------------| 
Ab|-----------------2-----3---2-----|-----------------2-----3---6--|------------------2-----3---2-----| 
Eb|-6p0-1p0-0-0-0-0-0-0-0-1-0-0-0-0-|-6p0-1p0-0-0-0-0-0-0-0---0----|--6p0-1p0-0-0-0-0-0-0-0-1-0-0-0-0-| 
          pm. . . .   . .   .   . .           . . . .   . .   .               . . . .   . .   .   . . 

Eb|-------------------------------|---------------------------------|---------------------------------| 
Bb|-------------------------------|---------------------------------|---------------------------------| 
Gb|-------------------------------|---------------------------------|---------------------------------| 
Db|-------------------------------|---------------------------------|-----------------9-----5---8-----| 
Ab|-----------------6\5-3-5-3-----|-----------------2-----3---2-----|-----------------7-----3---6-----| 
Eb|-6p0-1p0-0-0-0-0-----------6\5-|-6p0-1p0-0-0-0-0-0-0-0-1-0-0-0-0-|-6p0-1p0-0-0-0-0-0-0-0---0-------| 
          pm. . . .                         . . . .   . .   .   . .           . . . .   . .   .      

Eb|---------------------------------|--------------------------------| 
Bb|---------------------------------|--------------------------------| 
Gb|---------------------------------|--------------------------------| 
Db|---------------------------------|--------------------------------| 
Ab|-----------------2-----3---2-----|-----------------6\5-3-5-3------| 
Eb|-6p0-1p0-0-0-0-0-0-0-0-1-0-0-0-0-|-6p0-1p0-0-0-0-0-----------6\5--| 
          pm. . . .   . .   .   . .           . . . .     

Guitar 1 (Electric) (2:59 - 3:09) (Riff 5a) 
Eb|-----------------------------------------------------|----------------------------| 
Bb|-----------------------------------------------------|----------------------------| 
Gb|-----------------------------------------------------|----------------------------| 
Db|-----------------------------------------------------|----------------------------| 
Ab|----------8-------------------------8--------------8-|---------8---8---8h10p8-----| 
Eb|-6p-0-0-6---0-0-0-0-6p-0-0-6p-0-0-6---0-0-6p-0-0-6---|-0-0-0-0---0---0--------10--| 
  pm.  . . .   . . . . .  . . .  . . .   . . .  . . .     . . . .   .   . 

Eb|-----------------------------------------------------|----------------------------| 
Bb|-----------------------------------------------------|----------------------------| 
Gb|-----------------------------------------------------|----------------------------| 
Db|-----------------------------------------------------|----------------------------| 
Ab|----------8-------------------------8--------------8-|---------8---8---8h10p8-----| 
Eb|-6p-0-0-6---0-0-0-0-6p-0-0-6p-0-0-6---0-0-6p-0-0-6---|-0-0-0-0---0---0--------10--| 
  pm.  . . .   . . . . .  . . .  . . .   . . .  . . .     . . . .   .   . 

Solo (3:10 - 3:33) 

Guitar 1 (Electric) (3:10 - 3:33) (Riff 6) 
Eb|----------------------------|-------------------------------|----------------------------| 
Bb|----------------------------|-------------------------------|----------------------------| 
Gb|----------------------------|-------------------------------|----------------------------| 
Db|----------------------------|-------------------------------|----------------------------| 
Ab|--4---4-4-4-4---4---4-4-4-4-|--4---4-4-4-4--7-7-7-7-5-5-5-5-|--4---4-4-4-4---4---4-4-4-4-| 
Eb|--2--p0-2p0-2---2--p0-2p0-2-|--2--p0-2p0-2--5-5-5-5-3-3-3-3-|--2--p0-2p0-2---2--p0-2p0-2-| 

Eb|-------------------------------|----------------------------|-----------------------------------| 
Bb|-------------------------------|----------------------------|-----------------------------------| 
Gb|-------------------------------|----------------------------|-----------------------------------| 
Db|-------------------------------|----------------------------|-----------------------------------| 
Ab|--4---4-4-4-4--7-7-7-7-5-5-5-5-|--7---7-7-7-7---7---7-7-7-7-|--7---7-7-7-7--10-10-10-10-9-9-9-9-| 
Eb|--2--p0-2p0-2--5-5-5-5-3-3-3-3-|--5--p0-5p0-5---5--p0-5p0-5-|--5--p0-5p0-5---8--8--8--8-7-7-7-7-| 

Eb|----------------------------|----------------------------------------| 
Bb|----------------------------|----------------------------------------| 
Gb|----------------------------|----------------------------------------| 
Db|----------------------------|----------------------------------------| 
Ab|--7---7-7-7-7---7---7-7-7-7-|--7---7-7-7-7--10-10-10-10-12-12-12-12--| 
Eb|--5--p0-5p0-5---5--p0-5p0-5-|--5--p0-5p0-5---8--8--8--8-10-10-10-10--| 

PreChorus 2 (3:33 - 3:55) 

Guitar 1 (Electric) (3:33 - 3:55) (Riff 7) 
Eb|-------------------------------------------------------|-------------------------------------------------| 
Bb|-------------------------------------------------------|-------------------------------------------------| 
Gb|--9---12-10---7---10-9---9-5---9-7---7-4---/12-10-9-7--|-/9---12-10---7---10-9---9-5---9-7---7-4---7--9--| 
Db|--9---12-10---7---10-9---9-5---9-7---7-4---/12-10-9-7--|-/9---12-10---7---10-9---9-5---9-7---7-4---7--9--| 
Ab|--7---10--8---5----8-7---7-3---7-5---5-2---/10--8-7-5--|-/7---10--8---5----8-7---7-3---7-5---5-2---5--7--| 
Eb|--0----------------------------------------------------|--0----------------------------------------------| 

Guitar 2 (Electric) (3:33 - 3:55) (Riff 7a) 
Eb|-------------------------------------------------------|-------------------------------------------------| 
Bb|-------------------------------------------------------|-------------------------------------------------| 
Gb|--9---12-10---7---10-9---9-5---9-7---7-4---/12-10-9-7--|--9---12-10---7---10-9---9-5---9-7---7-4---7--9--| 
Db|--x----x--x---x----x-x---x-x---x-x---x-x---/-x--x-x-x--|--x----x--x---x----x-x---x-x---x-x---x-x---x--x--| 
Ab|--7---10--8---5----8-7---7-3---7-5---5-2---/10--8-7-5--|--7---10--8---5----8-7---7-3---7-5---5-2---5--7--| 
Eb|--0----------------------------------------------------|--0----------------------------------------------| 

Chorus 3 (3:55 - 4:15) 

Guitar 1 (Electric) (3:55 - 4:15) (Riff 4*) 
Eb|------------------------------------------|----------------------------------------------| 
Bb|------------------------------------------|----------------------------------------------| 
Gb|--5----2----8/9-9-9-9-9-9--8/9-9-9-9-9-9--|--5----2----8/9-9-9-9-9-9-9--8/9-9-9-9-9-9-9--| 
Db|--5----2----8/9-9-9-9-9-9--8/9-9-9-9-9-9--|--5----2----8/9-9-9-9-9-9-9--8/9-9-9-9-9-9-9--| 
Ab|--3----0----6/7-7-7-7-7-7--6/7-7-7-7-7-7--|--3----0----6/7-7-7-7-7-7-7--6/7-7-7-7-7-7-7--| 
Eb|------------------------------------------|----------------------------------------------| 

Eb|-------------------------------------------|----------------------------------| 
Bb|-------------------------------------------|----------------------------------| 
Gb|--5----2---------------5-5-5-5-5-5----2-2--|----------------------------------| 
Db|--5----2----2----4-----5-5-5-5-5-5----2-2--|----------------------------------| 
Ab|--3----0----2----4-----3-3-3-3-3-3----0-0--|----------------------------------| 
Eb|------------0----2-------------------------|----------------------------------| 

Guitar 2 (Electric) (3:55 - 4:15) (Riff 4a) 
Eb|---------------------------------------|--------------------------------------| 
Bb|---------------------------------------|--------------------------------------| 
Gb|---------------------------------------|--------------------------------------| 
Db|-----4~-5~----7~-6~----7~-6~-----7~-6~-|-----4~-5~----7~-6~----7~-6~----7~-6~-| 
Ab|--7~-------7~-------7~--------7~-------|--7~-------7~-------7~-------7~-------| 
Eb|---------------------------------------|--------------------------------------| 

Post Chorus 2 (4:15 - 4:29)  

Guitar 1 (Electric) (4:15 - 4:29) (Riff 1a*) 
Eb|-----------------------------------------------|---------------------------| 
Bb|-----------------------------------------------|---------------------------| 
Gb|-----------------------------------------------|---------------------------| 
Db|-9-----9-----9-10\9----9----9/10\9---9---9/10--|--12-12-12-12-10-10-10-10--| 
Ab|-7-----7-----7--8\7----7----7/-8\7---7---7/-8--|--10-10-10-10--8--8--8--8--| 
Eb|-0--0--0--0--0-------0-0--0-0------0-0-0-------|---------------------------| 

Eb|-----------------------------------------------|------------------------------| 
Bb|-----------------------------------------------|------------------------------| 
Gb|-----------------------------------------------|------------------------------| 
Db|-9-----9-----9/10\9----9----9/10\9---9---9/10--|--12-12-12-12-10-10-10-10--9--| 
Ab|-7-----7-----7/-8\7----7----7/-8\7---7---7/-8--|--10-10-10-10--8--8--8--8--7--| 
Eb|-0--0--0--0--0-------0-0--0-0------0-0-0-------|---------------------------0--| 

Guitar 2 (Electric) (4:15 - 4:29) (Riff 1b*) 
Eb|-----------------------------------------------|---------------------------| 
Bb|-----------------------------------------------|---------------------------| 
Gb|-9~----------9/10\9~--------9/10\9-------9/10--|-12-12-12-12-10-10-10-10---| 
Db|-----------------------------------------------|---------------------------| 
Ab|-----------------------------------------------|---------------------------| 
Eb|-----------------------------------------------|---------------------------| 

Eb|-----------------------------------------------|-----------------------------| 
Bb|-----------------------------------------------|-----------------------------| 
Gb|-9~----------9/10\9~--------9/10\9-------9/10--|-12-12-12-12-10-10-10-10--9--| 
Db|-----------------------------------------------|-----------------------------| 
Ab|-----------------------------------------------|-----------------------------| 
Eb|-----------------------------------------------|-----------------------------| 

Outro (4:30 - 5:05) 

Guitar 1 (Electric) (4:30 - 4:53) (Riff 5*) 
Eb|---------------------------------|------------------------------|----------------------------------| 
Bb|---------------------------------|------------------------------|----------------------------------| 
Gb|---------------------------------|------------------------------|----------------------------------| 
Db|---------------------------------|-----------------10-----5---8-|----------------------------------| 
Ab|-----------------2-----3---2-----|------------------8-----3---6-|------------------2-----3---2-----| 
Eb|-6p0-1p0-0-0-0-0-0-0-0-1-0-0-0-0-|-6p0-1p0-0-0-0-0----0-0---0---|--6p0-1p0-0-0-0-0-0-0-0-1-0-0-0-0-| 
          pm. . . .   . .   .   . .           . . . .    . .   .              . . . .   . .   .   . . 

Eb|-------------------------------|---------------------------------|----------------------------------| 
Bb|-------------------------------|---------------------------------|----------------------------------| 
Gb|-------------------------------|---------------------------------|----------------------------------| 
Db|-------------------------------|---------------------------------|-----------------10-----5---8-----| 
Ab|-----------------6\5-3-5-3-----|-----------------2-----3---2-----|------------------8-----3---6-----| 
Eb|-6p0-1p0-0-0-0-0-----------6\5-|-6p0-1p0-0-0-0-0-0-0-0-1-0-0-0-0-|-6p0-1p0-0-0-0-0----0-0---0-------| 
          pm. . . .                         . . . .   . .   .   . .           . . . .    . .   .      

Eb|---------------------------------|--------------------------------| 
Bb|---------------------------------|--------------------------------| 
Gb|---------------------------------|--------------------------------| 
Db|---------------------------------|--------------------------------| 
Ab|-----------------2-----3---2-----|-----------------6\5-3-5-3------| 
Eb|-6p0-1p0-0-0-0-0-0-0-0-1-0-0-0-0-|-6p0-1p0-0-0-0-0-----------6\5--| 
          pm. . . .   . .   .   . .           . . . .     

Guitar 1 (Electric) (4:54 - 5:05) (Riff 5a) 
Eb|-----------------------------------------------------|----------------------------| 
Bb|-----------------------------------------------------|----------------------------| 
Gb|-----------------------------------------------------|----------------------------| 
Db|-----------------------------------------------------|----------------------------| 
Ab|----------8-------------------------8--------------8-|---------8---8---8h10p8-----| 
Eb|-6p-0-0-6---0-0-0-0-6p-0-0-6p-0-0-6---0-0-6p-0-0-6---|-0-0-0-0---0---0--------10--| 
  pm.  . . .   . . . . .  . . .  . . .   . . .  . . .     . . . .   .   . 

Eb|-----------------------------------------------------|-----------------------------| 
Bb|-----------------------------------------------------|-----------------------------| 
Gb|-----------------------------------------------------|-----------------------------| 
Db|-----------------------------------------------------|-----------------------------| 
Ab|----------8-------------------------8--------------8-|---------8---8---8h10p8------| 
Eb|-6p-0-0-6---0-0-0-0-6p-0-0-6p-0-0-6---0-0-6p-0-0-6---|-0-0-0-0---0---0--------10\--| 
  pm.  . . .   . . . . .  . . .  . . .   . . .  . . .     . . . .   .   . 




************************************ 

| b  Bend 
| p  Pull-off 
| /  Slide up 
| \  Slide down 
| ~  Vibrato 
| x  Dead note 
| .  Staccato 
| h  Hammer-on 

************************************ 
  

top 5 | stone sour
top
Outras músicas do artista letras do(a) Stone Sour
Top cifras »Top artistas »
Petaxxon Comunicação Online
Cifras.com.br - Melhor e mais completo site de cifras e tablaturas do Brasil
Mais de 1 milhão de acordes de músicas cadastradas desde 2003
As informações contidas no nosso site são colaborações de seus usuários e podem conter erros, sendo assim, não nos responsabilizamos sobre nenhuma destas.
close
menos
mais
close
Cor dos acordes:

Cor da letra:

 

save
close
close
 
redimensionar