Cifras e Tablaturas
Sungha Jung

Sungha Jung

Lost In Memories

Cifras Cancelar Versão de Impressão
cifras

Sungha Jung - Lost In Memories

fixar na tela  
Exibindo: vídeo-aula ver clipes redimensionar

Tom:

  
                                             
E |--------4h-2--0-----0-------------------|-----------0-----------------0----------| 
B |-----------------4-----2--0-----0-------|--0-----------------0h-2----------------| 
G |-----------------------------1----------|--1-----------1-----1h-2--------1-------| 
D |----------------------------------------|--2--------------2--2--------------2----| 
A |-----------------------------------0----|--0-----------------0-----0-----0-------| 
E |----------------------------------------|----------------------------------------| 

                                          
                                          
E |-----------0----------------------------|-----------0-----------------0----------| 
B |--0-----------------0h-2-----0----------|--0-----------------0h-2----------------| 
G |--1-----------1-----1h-2--------1-------|--1-----------1-----1h-2--------1-------| 
D |--2--------------2--2--------------2----|--2--------------2--2--------------2----| 
A |--0-----0-----0-----0-----0-----0-------|----------------------------------------| 
E |----------------------------------------|--2-----2-----2-----2-----2-----2-------| 

                                          
                                                                ^ 
E |-----------0----------------------------|--------------------0-------------------| 
B |--0-----------------0h-2-----0----------|--5-----------------5--------5----------| 
G |--1-----------1-----1h-2--------1-------|--4--------4--------4--------------4----| 
D |--2--------------2--2--------------2----|----------------------------------------| 
A |----------------------------------------|--4-----4--------4--------4-----4-------| 
E |--2-----2-----2-----2-----2-----2-------|----------------------------------------| 

                                           
E |----------------------------------------|-----------0--------0h-2----------------| 
B |--5--------5--------5--------4----------|--3--------------------------3----------| 
G |--4--------------4----------------------|----------------------------------------| 
D |----------------------------------------|----------------------------------------| 
A |--4-----4-----4-----4--------3----------|--2-----2-----2-----2-----2-----0-------| 
E |----------------------------------------|----------------------------------------| 

     v                     
E |----------------------| 
B |----------------------| 
G |--1--------1--2s-4----| 
D |--3-------------------| 
A |--2-------------------| 
E |--0-----0-------------| 

       
           
E |-------------------------------------------------------------------------------| 
B |--0h----2-----------------------------2h-0-------------------------------------| 
G |--2-----------------2--------------------------------------2-------------------| 
D |--2----------------------------------------------------------------------------| 
A |--0-----------0-----------0--------------0-----------0-----------0-------------| 
E |-------------------------------------------------------------------------------| 

                                          
E |----------------------------------------|----------------------------------------| 
B |-----------0----------------------------|-----------0--------0--------3s-5-------| 
G |--4-----------------2--------1----------|--2-----------2-------------------------| 
D |--4--------------4----------------------|--2--------------2--------2-----0-------| 
A |----------------------------------------|----------------------------------------| 
E |--4-----4-----4-----4-----4-----0-------|--2-----2-----------2-------------------| 

                                                                          
E |--------------------5s-7-----5----------|-----------5--------7s-9-----7----------| 
B |--5--------5----------------------------|--7-------------------------------------| 
G |--4--------------4----------------------|--6--------------6----------------------| 
D |--------------------------------0-------|--------7-----7-----------------0-------| 
A |--4-----4-----4-----4-------------------|--5-----------------5-------------------| 
E |----------------------------------------|----------------------------------------| 

                                                                         
E |----------------------------------------|-----------2--------2h-4-----2-----0----| 
B |--5-----------------5--------4----------|--3-------------------------------------| 
G |--4--------4--------4--------3-----0----|--2--------------2--------------2-------| 
D |-----------------6----------------------|--------------------------4-------------| 
A |--4-----4-----4-----4--------3----------|--2-----2-----------2-------------------| 
E |----------------------------------------|----------------------------------------| 


                       ^                     
E |-----------------------------0----------| 
B |----------------------------------------| 
G |-----------2--------1--------------1----| 
D |--------2-----------2-------------------| 
A |--------------------2-------------------| 
E |--0-----------0-----0-----0-----0-------| 

                                                                                 
E |-------------------------------------------------------------------------------| 
B |--0h----2-----------------------------2h-0-------------------------------------| 
G |--2-----------------2--------------------------------------2-------------------| 
D |--2----------------------------------------------------------------------------| 
A |--0-----------0-----------0--------------0-----------0-----------0-------------| 
E |-------------------------------------------------------------------------------| 

                                          
E |----------------------------------------|----------------------------------------| 
B |-----------0----------------------------|-----------0--------0--------3s-5-------| 
G |--4-----------------2--------1----------|--2-----------2-------------------------| 
D |--4--------------4----------------------|--2--------------2--------2-----0-------| 
A |----------------------------------------|----------------------------------------| 
E |--4-----4-----4-----4-----4-----0-------|--2-----2-----------2-------------------| 

                                                                                  
E |--------------------5s-7-----5----------|-----------5--------7s-9-----7----------| 
B |--5--------5----------------------------|--7-------------------------------------| 
G |--4--------------4----------------------|--6--------------6----------------------| 
D |--------------------------------0-------|--------7-----7-----------------0-------| 
A |--4-----4-----4-----4-------------------|--5-----------------5-------------------| 
E |----------------------------------------|----------------------------------------| 

                                          
                                        
E |----------------------------------------|-----------0----------------------------| 
B |--5-----------------5--------4----------|--3-----------------0-------------------| 
G |--4--------4--------4--------3-----0----|--2--------------------------1----------| 
D |-----------------6----------------------|--------4-----0-------------------------| 
A |--4-----4-----4-----4--------3----------|--2--------------0--------2--------0----| 
E |----------------------------------------|--------------------0-----------0-------| 

                                                                                 
E |-----------------------------0----------| 
B |-----------0--------2-------------------| 
G |--2-----------------0-----0--------0----| 
D |--2--------------2--------------0-------| 
A |--------------------0-------------------| 
E |--0-----0-----0-------------------------| 

                                                                                 
E |--1-----------------------------------1h-0-------------------------------------| 
B |--3-----------------3--------------------------------------3-------------------| 
G |--------------------------------2--------------------------------------2-------| 
D |--0-----------0-----------0--------------0-----------0-----------0-------------| 
A |-------------------------------------------------------------------------------| 
E |-------------------------------------------------------------------------------| 

     ^                                       
E |-----------0----------------------------|-----------0--------2s-4-----2h-0-------| 
B |--5--------------------------0----------|--2s-3-----------------------------2----| 
G |--0-----------------2-------------------|----------------------------------------| 
D |--------------------2-----------0-------|----------------------------------------| 
A |--4-----------0-------------------------|--2-----2-----2h-0----------------------| 
E |--------------------2-------------------|--------------------0-----0-------------| 

                                                                             
E |-----------------------------0----------|--1-----------------1--------4s-5-------| 
B |--------------------2--------------3----|--3--------3----------------------------| 
G |-----------2--------0-------------------|-----------------2-----------------0----| 
D |-----------------2----------------------|--0-----0-----0-----0-----0-------------| 
A |--0-----0-----0-----0-----0-----0-------|----------------------------------------| 
E |----------------------------------------|----------------------------------------| 

                                          
                                     
E |--7--------5h-4-------------------------|-----------0--------2--------4h-5-------| 
B |--------------------2-------------------|--3-------------------------------------| 
G |--------------------2-------------------|--0-------------------------------------| 
D |--------------------------------0-------|--0-------------------------------------| 
A |--4-----4-------------------------------|--2-----2-----2-----2-----2-----0-------| 
E |--------------------2-------------------|----------------------------------------| 

                                                                            
E |--7-----------------9-------------------|--10----------------10------------------| 
B |-----------0-----------------0----------|-----------0----------------------------| 
G |--------------7s-9--------------9s-11---|----------------------------------------| 
D |----------------------------------------|--------------------------------0-------| 
A |----------------------------------------|----------------------------------------| 
E |--0-----0-----0-----0-----0-----0-------|--0-----0-----0-----0-------------------| 

                                          
                                          
E |--0h-2--------------2-------------------| 
B |-----------3-----------------3----------| 
G |--2--------------2-----------------2----| 
D |--0-----0-----0-----0-----0-----0-------| 
A |----------------------------------------| 
E |----------------------------------------| 

                                                                                 
E |--------------------2-----------------2h-0-------------------------------------| 
B |--------------------------------3--------------------------3s----5-------------| 
G |--1----------------------------------------------------------------------------| 
D |--0-----------0-----------0--------------0-----------0-----------0-------------| 
A |-------------------------------------------------------------------------------| 
E |-------------------------------------------------------------------------------| 

     ^                                       
E |--------------------5--------4----------|-----------0----------------------------| 
B |--5--------5----------------------------|--------------------2s-3-----2----------| 
G |--4--------------4----------------------|--2--------------2----------------------| 
D |----------------------------------------|--2-----------2-----------------0-------| 
A |--4-----4-----4-----4-----4-----0-------|----------------------------------------| 
E |----------------------------------------|--2-----------------2-------------------| 

                                                                                 
E |-----------0--------2--------4h-5-------|--7-----------------7s-9-----7s-9-------| 
B |--3--------------3----------------------|-----------0----------------------------| 
G |--2-----------------2-------------------|--7--------------7--7s-9-----7s-9-------| 
D |----------------------------------------|-----------------------------------7----| 
A |--2-----2-----2-----2-----------0-------|----------------------------------------| 
E |----------------------------------------|--0-----0-----0-----------0-------------| 
                                         
                                         
E |--9-----------------9-------------------| 
B |-----------0-----------------0----------| 
G |-----------------9-----------------9----| 
D |--------7-----7-----------7-----7-------| 
A |--0-----------------0-------------------| 
E |----------------------------------------| 

     ^                                                                              
E |--9-----------------------------------9h-7-----------------5-------------------| 
B |--8-----------------8----------------------------------------------------------| 
G |--9-----------------------------9--------------------------------------0-------| 
D |--7-----------7-----------7--------------------------7-----------7-------------| 
A |--0--------------------------------------0-------------------------------------| 
E |-------------------------------------------------------------------------------| 

                                          
E |--0h-2--------------2-------------------|-----------2--------4--------5----------| 
B |-----------3-----------------3----------|-----------------3----------------------| 
G |--2--------------2-----------------2----|--1-----------------------------1h-0----| 
D |--0-----0-----0-----0-----0-----0-------|--0-----0-----0-----0-----0-----0-------| 
A |----------------------------------------|----------------------------------------| 
E |----------------------------------------|----------------------------------------| 

                                          
                                                       ^            
E |--7--------5--------4--------5----------|----------------------| 
B |-----------------5----------------------|--2--------2-----3----| 
G |----------------------------------------|--2--------2----------| 
D |----------------------------------------|--------2-----2-------| 
A |--4-----4-----4-----4-----4-----0-------|----------------------| 
E |----------------------------------------|--2--------2----------| 

                                              v                     
E |-----------0--------0h-2----------------|----------------------| 
B |--3--------------------------3----------|----------------------| 
G |--2-------------------------------------|--1--------1--2s-4----| 
D |----------------------------------------|--3-------------------| 
A |--2-----2-----2-----2-----2-----0-------|--2-------------------| 
E |----------------------------------------|--0-----0-------------| 

                                          
E |-----------0-----------------0----------|-----------0----------------------------| 
B |--0-----------------0h-2----------------|--0-----------------0h-2-----0----------| 
G |--1-----------1-----1h-2--------1-------|--1-----------1-----1h-2--------1-------| 
D |--2--------------2--2--------------2----|--2--------------2--2--------------2----| 
A |--0-----------------0-----0-----0-------|--0-----0-----0-----0-----0-----0-------| 
E |----------------------------------------|----------------------------------------| 

                                                                               
E |-----------0-----------------0----------|-----------0----------------------------| 
B |--0-----------------0h-2----------------|--0-----------------0h-2-----0----------| 
G |--1-----------1-----1h-2--------1-------|--1-----------1-----1h-2--------1-------| 
D |--2--------------2--2--------------2----|--2--------------2--2--------------2----| 
A |----------------------------------------|----------------------------------------| 
E |--2-----2-----2-----2-----2-----2-------|--2-----2-----2-----2-----2-----2-------| 

                                          
                   ^                     
E |--------------------0-------------------|----------------------------------------| 
B |--5-----------------5--------5----------|--5--------5--------5--------4----------| 
G |--4--------4--------4--------------4----|--4--------------4----------------------| 
D |----------------------------------------|----------------------------------------| 
A |--4-----4--------4--------4-----4-------|--4-----4-----4-----4--------3----------| 
E |----------------------------------------|----------------------------------------| 

                                              v                     
E |-----------0--------0h-2----------------|----------------------| 
B |--3--------------------------3----------|----------------------| 
G |----------------------------------------|--1--------1--2s-4----| 
D |----------------------------------------|--3-------------------| 
A |--2-----2-----2-----2-----2-----0-------|--2-------------------| 
E |----------------------------------------|--0-----0-------------| 

                                                                                 
E |-------------------------------------------------------------------------------| 
B |--0h----2-----------------------------2h-0-------------------------------------| 
G |--2-----------------2--------------------------------------2-------------------| 
D |--2----------------------------------------------------------------------------| 
A |--0-----------0-----------0--------------0-----------0-----------0-------------| 
E |-------------------------------------------------------------------------------| 

                                          
E |----------------------------------------|----------------------------------------| 
B |-----------0----------------------------|-----------0--------0--------3s-5-------| 
G |--4-----------------2--------1----------|--2-----------2-------------------------| 
D |--4--------------4----------------------|--2--------------2--------2-----0-------| 
A |----------------------------------------|----------------------------------------| 
E |--4-----4-----4-----4-----4-----0-------|--2-----2-----------2-------------------| 

                                     
E |--------------------5s-7-----5----------| 
B |--5--------5----------------------------| 
G |--4--------------4----------------------| 
D |--------------------------------0-------| 
A |--4-----4-----4-----4-------------------| 
E |----------------------------------------| 

                                                                                 
E |--------------------5-----------------5s----7-----------8s-7-----------4-------| 
B |--7----------------------------------------------------------------------------| 
G |--6-----------------------------6----------------------------------------------| 
D |--------------------------7-----------------------7M---------------------------| 
A |--5-----------------------------------5----------------------------------------| 
E |-------------------------------------------------------------------------------| 

                                          
E |----------------------------------------|-----------0----------------------------| 
B |--------------------5--------4----------|--3-----------------0-------------------| 
G |-----------4--------4--------3-----3----|--2--------------------------1----------| 
D |-----------------6----------------------|--------4-----0-------------------------| 
A |--4-----4-----4-----4--------3----------|--2--------------0--------2--------0----| 
E |----------------------------------------|--------------------0-----------0-------| 

                                    
E |-----------------------------0----------| 
B |-----------0--------2-------------------| 
G |--2-----------------0-----0--------0----| 
D |--2--------------2--------------0-------| 
A |--------------------0-------------------| 
E |--0-----0-----0-------------------------| 

                                                                                 
E |--1-----------------------------------1h-0-------------------------------------| 
B |--3-----------------3--------------------------------------3-------------------| 
G |--------------------------------2--------------------------------------2-------| 
D |--0-----------0-----------0--------------0-----------0-----------0-------------| 
A |-------------------------------------------------------------------------------| 
E |-------------------------------------------------------------------------------| 

     ^                                       
E |-----------5-----0----------------------|-----------0--------2s-4-----2h-0-------| 
B |--5--------------------------0----------|--2s-3-----------------------------2----| 
G |--0-----------------2-------------------|----------------------------------------| 
D |--------------------2-----------0-------|----------------------------------------| 
A |--4-----4-----0-------------------------|--2-----2-----0-------------------------| 
E |--------------------2-------------------|--------------------0-----0-------------| 

                                                                                 
E |-----------------------------5----------|--1-----------------1--------4s-5-------| 
B |--------------------2--------5----------|--3--------3----------------------------| 
G |-----------2--------0--------------0----|-----------------2----------------------| 
D |-----------------2----------------------|--0-----0-----0-----0-----0--------0----| 
A |--0-----0-----0-----0-----0-------------|----------------------------------------| 
E |----------------------------------------|----------------------------------------| 

                                          
E |--7--------5h-4-------------------------|-----------0--------2--------4h-5-------| 
B |--------------------2-------------------|--3-------------------------------------| 
G |--------------------2-------------------|--0-------------------------------------| 
D |--------------------------------0-------|--0-------------------------------------| 
A |--4-----4-------------------------------|--2-----2-----2-----2-----2-----0-------| 
E |--------------------2-------------------|----------------------------------------| 

                              
E |--7-----------------9-------------------|--10----------------12------------------| 
B |-----------0-----------------0----------|-----------0--------12------------------| 
G |--------------7s-9--------------9s-11---|--------------11s13---------------------| 
D |----------------------------------------|--------------------------------0-------| 
A |----------------------------------------|----------------------------------------| 
E |--0-----0-----0-----0-----0-----0-------|--0-----0-----0-----0-------------------| 


                                          
E |--0h-2--------------2-------------------| 
B |-----------3-----------------3----------| 
G |--2--------------2-----------------2----| 
D |--0-----0-----0-----0-----0-----0-------| 
A |----------------------------------------| 
E |----------------------------------------| 

                                                                                 
E |--------------------2-----------------2h-0-------------------------------------| 
B |--------------------------------3--------------------------3s----5-------------| 
G |--1----------------------------------------------------------------------------| 
D |--0-----------0-----------0--------------0-----------0-----------0-------------| 
A |-------------------------------------------------------------------------------| 
E |-------------------------------------------------------------------------------| 

     ^                                       
E |--------------------5--------4----------|-----------0----------------------------| 
B |--5--------5----------------------------|--------------------2s-3-----2----------| 
G |--4--------------4----------------------|--2--------------2----------------------| 
D |----------------------------------------|--2-----------2-----------------0-------| 
A |--4-----4-----4-----4-----4-----0-------|----------------------------------------| 
E |----------------------------------------|--2-----------------2-------------------| 

                                     
E |-----------0--------2--------4h-5-------|--7-----------------7s-9-----7s-9-------| 
B |--3--------------3----------------------|-----------0----------------------------| 
G |--2-----------------2-------------------|--7--------------7--7s-9-----7s-9-------| 
D |----------------------------------------|-----------------------------------7----| 
A |--2-----2-----2-----2-----------0-------|----------------------------------------| 
E |----------------------------------------|--0-----0-----0-----------0-------------| 

                                      
E |--9-----------------9-------------------| 
B |-----------0-----------------0----------| 
G |-----------------9-----------------9----| 
D |--------7-----7-----------7-----7-------| 
A |--0-----------------0-------------------| 
E |----------------------------------------| 

     ^                                                                              
E |--9-----------------------------------9h-7-----------------5-------------------| 
B |--8-----------------8----------------------------------------------------------| 
G |--9-----------------------------9--------------------------------------0-------| 
D |--7-----------7-----------7--------------------------7-----------7-------------| 
A |--0--------------------------------------0-------------------------------------| 
E |-------------------------------------------------------------------------------| 

                                          
E |--0h-2--------------2-------------------|-----------2--------4--------5----------| 
B |-----------3-----------------3----------|-----------------3----------------------| 
G |--2--------------2-----------------2----|--1-----------------------------1h-0----| 
D |--0-----0-----0-----0-----0-----0-------|--0-----0-----0-----0-----0-----0-------| 
A |----------------------------------------|----------------------------------------| 
E |----------------------------------------|----------------------------------------| 

                                                       ^            
E |--7--------5--------4--------5----------|----------------------| 
B |-----------------5----------------------|--2--------2-----3----| 
G |----------------------------------------|--2--------2----------| 
D |----------------------------------------|--------2-----2-------| 
A |--4-----4-----4-----4-----4-----0-------|----------------------| 
E |----------------------------------------|--2--------2----------| 

                                           v                     
E |-----------0--------0h-2----------------|----------------------| 
B |--3--------------------------3----------|----------------------| 
G |--2-------------------------------------|--1--------1--2s-4----| 
D |----------------------------------------|--3-------------------| 
A |--2-----2-----2-----2-----2-----0-------|--2-------------------| 
E |----------------------------------------|--0-----0-------------| 

                                          
E |-----------0-----------------0----------| 
B |--0-----------------0h-2----------------| 
G |--1-----------1-----1h-2--------1-------| 
D |--2--------------2--2--------------2----| 
A |--0-----------------0-----0-----0-------| 
E |----------------------------------------| 

                                              ^        ^            
E |-----------0--------------------0-------|--2--------2--4s-5----| 
B |--0-----------------0-----------0-------|--3--------3----------| 
G |--1-----------1h-2----------------------|--2-----2-------------| 
D |--2-----2-------------------------------|--0-------------------| 
A |--0-------------------------------------|----------------------| 
E |----------------------------------------|----------------------| 

     ^        ^                                                     
E |--4--------4--5s-7----|--7s-9--------------7-------------------| 
B |--5--------5----------|--------------------------0-------------| 
G |--4-----4-------------|--------------9h-7--------------7-------| 
D |--0-------------------|--------7-------------------------------| 
A |----------------------|--0-----------------0-------------------| 
E |----------------------|----------------------------------------| 

  ^                                       
E |--------------------5-----7s-9--5-------| 
B |--0-----------------0-------------------| 
G |--6-----------------------7s-9--6-------| 
D |--7-----------7-------------------------| 
A |--0-------------------------------------| 
E |----------------------------------------| 

  ^                                                              
E |--5-----------------5-----7s-8--5-------|-----------5--7s-9----| 
B |--7-----------------0-------------------|--6--------6----------| 
G |--7-------------------------------------|--7-----7-------------| 
D |--0-----------7-------------------------|--0-------------------| 
A |----------------------------------------|----------------------| 
E |----------------------------------------|----------------------| 

                            ^                     
E |--9-----10-9----------|--9--------9--10s12---| 
B |----------------------|--8--------8----------| 
G |--9-----9--9-----9----|--9-----9-------------| 
D |-----7--------7-------|--7--7----------------| 
A |--0-------------------|--0-------------------| 
E |----------------------|----------------------| 

     ^                                                              
E |--9-----------------9-----10s---12------|--7--------7--9s-10---| 
B |--10-------------10---------------------|--------9-------------| 
G |--9--------9----------------------------|--------9-------------| 
D |--0-------------------------------------|--0-------------------| 
A |----------------------------------------|----------------------| 
E |----------------------------------------|----------------------| 

                                          
E |--9-----------------7-------------------| 
B |--------------------------0-------------| 
G |--------------9h-7----------------------| 
D |--------7-------------------------------| 
A |--0-----------------0-----------0-------| 
E |----------------------------------------| 

     ^                                                              
E |--5-----------------5-----5h-7--5-------|--------5--------5----| 
B |--0-----------------0-------------------|--7--------7----------| 
G |--6-----------------------------6-------|-----7--------7-------| 
D |--------------7-------------------------|--0--------0----------| 
A |--0-------------------------------------|----------------------| 
E |----------------------------------------|----------------------| 

     ^        v  ^                           
E |--5--------5--5-----7s-9--7-----5-------|--0--------------------------0----------| 
B |--6--------6--6-------------------------|-----------0--------------0-------------| 
G |--7-------------------------------------|-----------------1--1h-2----------------| 
D |--0-------------------------------------|--------2--------------------------2----| 
A |----------------------------------------|--0-----------0-----0-----0-----0-------| 
E |----------------------------------------|----------------------------------------| 

                                          
E |--------------------0-------------------|--0h-2--------------2-------------------| 
B |-----------0----------------------------|--------------------------------3-------| 
G |--1h-2-----------2----------------------|--2-----------2-------------------------| 
D |--------2-----2-----------------0-------|--------------------------0-------------| 
A |--0-------------------------------------|----------------------------------------| 
E |----------------------------------------|----------------------------------------| 

                                                                              
E |--------------------2-----------------2h-0-------------------------------------| 
B |-----------------------------------------------------------3s----5-------------| 
G |--1----------------------------------------------------------------------------| 
D |--0-----------------------0----------------------------------------------------| 
A |-----------------------------------------------------------------0-------------| 
E |-------------------------------------------------------------------------------| 

     ^                 ^                     
E |--------------------5--------4----------|-----------0----------------------------| 
B |--5--------5--------5-------------------|--------------------2s-3-----2----------| 
G |--4-----------------------0-------------|--2-------------------------------------| 
D |----------------------------------------|--2-----------2-------------------------| 
A |--4-----------4-----------------0-------|--------------------------------0-------| 
E |----------------------------------------|--2-----------------2-------------------| 

                                          

     ^                                       
E |-----------0--------2--------4h-5-------|--7-----------------7s-9-----7s-9-------| 
B |--3--------------3----------------------|-----------0----------------------------| 
G |--2-------------------------------------|--7--------------7--7s-9-----7s-9-------| 
D |----------------------------------------|-----------------------------------7----| 
A |--2-----2-----2-----------2-----0-------|----------------------------------------| 
E |----------------------------------------|--0-----0-----0-----------0-------------| 

                                          

                                              ^ 
E |--9-----------------9-------------------|--9-----------------9--------10s---12---| 
B |-----------0-----------------0----------|--8--------8----------------------------| 
G |-----------------9-----------------9----|--9--------------9----------------------| 
D |--------7-----7-----------7-----7-------|--7-----7-----7-----------7-------------| 
A |--0-----------------0-------------------|--0-----------------0-------------------| 
E |----------------------------------------|----------------------------------------| 

   
                                          
E |--9-----------------9--------10s---12---|--7-----------------7--------9s----10---| 
B |--10-------10-------10------------------|-----------9----------------------------| 
G |--9--------------9----------------------|-----------------9----------------------| 
D |--0-----0-----0-----------0-------------|--0-----0-----0-----------0-------------| 
A |----------------------------------------|----------------------------------------| 
E |----------------------------------------|----------------------------------------| 

                                  
E |--9-----------------7-------------------| 
B |-----------0-----------------0----------| 
G |--------------9h-7--------------7-------| 
D |--------7-------------------------------| 
A |--0-----------------0-----0-------------| 
E |----------------------------------------| 

                                                                 
E |--5-----------------5-----5h-7--5-------|--------5--------5----| 
B |-----------0----------------------------|--7--------7----------| 
G |-----------------6----------------------|-----7--------7-------| 
D |--------7-------------------------------|--0--------0----------| 
A |--0-------------------------------------|----------------------| 
E |----------------------------------------|----------------------| 

     ^        v  ^                           
E |--5--------5--5-----7s-9--7-----5-------| 
B |--6--------6--6-------------------------| 
G |--7-------------------------------------| 
D |--0-------------------------------------| 
A |----------------------------------------| 
E |----------------------------------------| 

                                          
E |--0--------------------------0----------|-----------0----------------------------| 
B |-----------0--------0h-2----------------|--0-----------------0h-2-----0----------| 
G |-----------------1--1h-2--------1-------|--1-----------1-----1h-2--------1-------| 
D |--------2-----2-----2--------------2----|--2--------------2--2--------------2----| 
A |--0-----------------0-----0-----0-------|--0-----0-----0-----0-----0-----0-------| 
E |----------------------------------------|----------------------------------------| 


E |-----------0-----------------0----------|-----------0----------------------------| 
B |--0-----------------0h-2----------------|--0-----------------0h-2-----0----------| 
G |--1-----------1-----1h-2--------1-------|--1-----------1-----1h-2--------1-------| 
D |--2--------------2--2--------------2----|--2--------------2--2--------------2----| 
A |----------------------------------------|----------------------------------------| 
E |--2-----2-----2-----2-----2-----2-------|--2-----2-----2-----2-----2-----2-------| 

                                          
                       ^                     
E |--------------------0-------------------|----------------------------------------| 
B |--5-----------------5--------5----------|--5--------5--------5--------4----------| 
G |--4--------4--------4--------------4----|--4--------------4----------------------| 
D |----------------------------------------|----------------------------------------| 
A |--4-----4--------4--------4-----4-------|--4-----4-----4-----4--------3----------| 
E |----------------------------------------|----------------------------------------| 

                                     v                      ^  v                     
E |-----------0--------0h-2----------------|-----------------------------0----------| 
B |--3--------------------------3----------|-----------------------------------0----| 
G |-----------------------------------1----|-----------1--------1-------------------| 
D |-----------------------------------3----|-----------------3--3-------------------| 
A |--2-----2-----2-----2-----2-----0--2----|-----------------2--2-----------2-------| 
E |----------------------------------------|--0-----0-----0-----------0-------------| 

                                     
E |-----------0-----------------0----------|-----------0----------------------------| 
B |--0-----------------0h-2----------------|--0-----------------0h-2-----0----------| 
G |--1-----------1-----1h-2--------1-------|--1-----------1-----1h-2--------1-------| 
D |--2--------------2--2--------------2----|--2--------------2--2--------------2----| 
A |--0-----------------0-----0-----0-------|--0-----0-----0-----0-----0-----0-------| 
E |----------------------------------------|----------------------------------------| 

                                
E |-----------0-----------------0----------|-----------0----------------------------| 
B |--0-----------------0h-2----------------|--0-----------------0h-2-----0----------| 
G |--1-----------1-----1h-2--------1-------|--1-----------1-----1h-2--------1-------| 
D |--2--------------2--2--------------2----|--2--------------2--2--------------2----| 
A |----------------------------------------|----------------------------------------| 
E |--2-----2-----2-----2-----2-----2-------|--2-----2-----2-----2-----2-----2-------| 

                       ^                     
E |--------------------0-------------------|----------------------------------------| 
B |--5-----------------5--------5----------|--5--------5--------5--------4----------| 
G |--4--------4--------4--------------4----|--4--------------4----------------------| 
D |----------------------------------------|----------------------------------------| 
A |--4-----4--------4--------4-----4-------|--4-----4-----4-----4--------3----------| 
E |----------------------------------------|----------------------------------------| 

                                              v                      ^ 
E |-----------0--------0h-2----------------|----------------------|--0----------| 
B |--3--------------------------3----------|----------------------|--0h----2----| 
G |----------------------------------------|--1--------1--2s-4----|--1----------| 
D |----------------------------------------|--3-------------------|--2----------| 
A |--2-----2-----2-----2-----2-----0-------|--2-------------------|--0----------| 
E |----------------------------------------|--0-----0-------------|-------------| 


----|----|| 
----|----|| 
----|----|| 
----|----|| 
----|----|| 
----|----|| 
  

top 5 | sungha jung
top rock clássico
Outras músicas do artista letras do(a) Sungha Jung
Top cifras »Top artistas »
Petaxxon Comunicação Online
Cifras.com.br - Melhor e mais completo site de cifras e tablaturas do Brasil
Mais de 1 milhão de acordes de músicas cadastradas desde 2003
As informações contidas no nosso site são colaborações de seus usuários e podem conter erros, sendo assim, não nos responsabilizamos sobre nenhuma destas.
close
menos
mais
close
Cor dos acordes:

Cor da letra:

 

save
close
close
 
redimensionar