Cifras e Tablaturas
T-bone Burnett

T-bone Burnett

Earlier Baghdad The Bounce

Cifras Cancelar Versão de Impressão
cifras

T-bone Burnett - Earlier Baghdad The Bounce

fixar na tela  
Exibindo: vídeo-aula ver clipes redimensionar
  
Intro 

e|---7---7---7-7---7| 
B|---8---8---8-8---8| 
G|---------0--------| x4 
D|---------------0--| 
A|-----0------------| 
D|0---------------| 


Verse 

e|---7---7---7-7---7---7---7---7-7---7---7---7---7-7---7---7---7---7-7---7| 
B|---8---8---8-8---8---8---8---8-8---8---8---8---8-8---8---8---8---8-8---8| 
G|---------0-----------------0-----------------0-----------------0--------|x4 
D|---------------0-----------------------------------0-----------------0--| 
A|-----0---------------------------7-------0-----------------0------------| 
D|0---------------7-7-----------0---------------0---------------| 
      I am not important... 

Chorus 

e|7--/10---8--7--5---/8--7--5--/7--3---7---7---7-7---7---7---7---7-7---7| 
B|8--/12--10--8--7--/10--8--7--/8--5---8---8---8-8---8---8---8---8-8---8| 
G|-------------------------------------------0-----------------0--------|x2 
D|-------------------------------------------------0-----------------0--| 
A|---------------------------------------0-----------------0------------| 
D|----------------------------------0---------------0---------------| 

Verse 

e|---7---7---7-7---7---7---7---7-7---7---7---7---7-7---7---7---7---7-7---7| 
B|---8---8---8-8---8---8---8---8-8---8---8---8---8-8---8---8---8---8-8---8| 
G|---------0-----------------0-----------------0-----------------0--------|x4 
D|---------------0-----------------------------------0-----------------0--| 
A|-----0---------------------------7-------0-----------------0------------| 
D|0---------------7-7-----------0---------------0---------------| 
      I offer you my broken image... 

Chorus 

e|7--/10---8--7--5---/8--7--5--/7--3---7---7---7-7---7---7---7---7-7---7| 
B|8--/12--10--8--7--/10--8--7--/8--5---8---8---8-8---8---8---8---8-8---8| 
G|-------------------------------------------0-----------------0--------|x2 
D|-------------------------------------------------0-----------------0--| 
A|---------------------------------------0-----------------0------------| 
D|----------------------------------0---------------0---------------| 

Bridge 

e|--2---2---2---2---2---2---2---2---7---7---7-7----7---7---7---7-7---7| 
B|--3---3---3---3---3---3---3---3---8---8---8-8----8---8---8---8-8---8| 
G|----------------------------------------0------------------0--------|x2 
D|----------------------------------------------0------------------0--| 
A|0---0-----------0---0---------------0------------------0------------| 
D|-------2-3}---------2-3-0----------------0---------------| 
      Could you use some quiet? 

Verse 

e|---7---7---7-7---7---7---7---7-7---7---7---7---7-7---7---7---7---7-7---7| 
B|---8---8---8-8---8---8---8---8-8---8---8---8---8-8---8---8---8---8-8---8| 
G|---------0-----------------0-----------------0-----------------0--------|x4 
D|---------------0-----------------------------------0-----------------0--| 
A|-----0---------------------------7-------0-----------------0------------| 
D|0---------------7-7-----------0---------------0---------------| 
      I surrender to you... 

Chorus 

e|7--/10---8--7--5---/8--7--5--/7--3---7---7---7-7---7---7---7---7-7---7| 
B|8--/12--10--8--7--/10--8--7--/8--5---8---8---8-8---8---8---8---8-8---8| 
G|-------------------------------------------0-----------------0--------|x4 
D|-------------------------------------------------0-----------------0--| 
A|---------------------------------------0-----------------0------------| 
D|----------------------------------0---------------0---------------| 

Outro 

e|---7---7---7-7---7---7---7---7-7---7--------| 
B|---8---8---8-8---8---8---8---8-8---8--------| 
G|---------0-----------------0-----------0----| 
D|---------------0-----------------0-----0---0| 
A|-----0-----------------0---------------0---0| 
D|0---------------0------------------0---0| 
  

top 5 | t-bone burnett
top rock'n roll
Outras músicas do artista letras do(a) T-bone Burnett
Top cifras »Top artistas »
Petaxxon Comunicação Online
Cifras.com.br - Melhor e mais completo site de cifras e tablaturas do Brasil
Mais de 1 milhão de acordes de músicas cadastradas desde 2003
As informações contidas no nosso site são colaborações de seus usuários e podem conter erros, sendo assim, não nos responsabilizamos sobre nenhuma destas.
close
menos
mais
close
Cor dos acordes:

Cor da letra:

 

save
close
close
 
redimensionar