Cifras e Tablaturas
Teen Suicide

Teen Suicide

Everything Is Fine

Cifras Cancelar Versão de Impressão
cifras

Teen Suicide - Everything Is Fine

fixar na tela  
Exibindo: vídeo-aula ver clipes redimensionar

Tom:

  
Intro 

E|3--3--3--3--3--3--3--3--|7--7--7--7--7--7--7--7--|     
A|5--5--5--5--5--5--5--5--|9--9--9--9--9--9--9--9--|     
D|5--5--5--5--5--5--5--5--|9--9--9--9--9--9--9--9--|     
G|------------------------|------------------------| x4  
B|------------------------|------------------------|     
e|------------------------|------------------------|     


Verse 

E|3--3--3--3--3--3--3--3--|7--7--7--7--7--7--7--7--|    E|3--3--3--3--3--3--3--3--|8--8--8--8--7--7--7--7--| 
A|5--5--5--5--5--5--5--5--|9--9--9--9--9--9--9--9--|    A|5--5--5--5--5--5--5--5--|10-10-10-10-9--9--9--9--| 
D|5--5--5--5--5--5--5--5--|9--9--9--9--9--9--9--9--|    D|5--5--5--5--5--5--5--5--|10-10-10-10-9--9--9--9--| 
G|------------------------|------------------------| x3 G|------------------------|------------------------|x2 
B|------------------------|------------------------|    B|------------------------|------------------------| 
e|------------------------|------------------------|    e|------------------------|------------------------| 

E|3--3--3--3--3--3--3--3--|8--8--8--8--8--8--8--8--|8--8--8--8--8--8--8--8--| 
A|5--5--5--5--5--5--5--5--|10-10-10-10-10-10-10-10-|10-10-10-10-10-10-10-10-| 
D|5--5--5--5--5--5--5--5--|10-10-10-10-10-10-10-10-|10-10-10-10-10-10-10-10-| 
G|------------------------|------------------------|------------------------| 
B|------------------------|------------------------|------------------------| 
e|------------------------|------------------------|------------------------| 


Chorus 

E|3--3--3--3--3--3--3--3--|7--7--7--7--7--7--7--7--|     
A|5--5--5--5--5--5--5--5--|9--9--9--9--9--9--9--9--|     
D|5--5--5--5--5--5--5--5--|9--9--9--9--9--9--9--9--|     
G|------------------------|------------------------| x4  
B|------------------------|------------------------|     
e|------------------------|------------------------|     


Verse 

E|3--3--3--3--3--3--3--3--|7--7--7--7--7--7--7--7--|    E|3--3--3--3--3--3--3--3--|8--8--8--8--7--7--7--7--| 
A|5--5--5--5--5--5--5--5--|9--9--9--9--9--9--9--9--|    A|5--5--5--5--5--5--5--5--|10-10-10-10-9--9--9--9--| 
D|5--5--5--5--5--5--5--5--|9--9--9--9--9--9--9--9--|    D|5--5--5--5--5--5--5--5--|10-10-10-10-9--9--9--9--| 
G|------------------------|------------------------| x3 G|------------------------|------------------------|x2 
B|------------------------|------------------------|    B|------------------------|------------------------| 
e|------------------------|------------------------|    e|------------------------|------------------------| 

E|3--3--3--3--3--3--3--3--|8--8--8--8--8--8--8--8--|8--8--8--8--8--8--8--8--| 
A|5--5--5--5--5--5--5--5--|10-10-10-10-10-10-10-10-|10-10-10-10-10-10-10-10-| 
D|5--5--5--5--5--5--5--5--|10-10-10-10-10-10-10-10-|10-10-10-10-10-10-10-10-| 
G|------------------------|------------------------|------------------------| 
B|------------------------|------------------------|------------------------| 
e|------------------------|------------------------|------------------------| 


Chorus 

E|3--3--3--3--3--3--3--3--|7--7--7--7--7--7--7--7--|     
A|5--5--5--5--5--5--5--5--|9--9--9--9--9--9--9--9--|     
D|5--5--5--5--5--5--5--5--|9--9--9--9--9--9--9--9--|     
G|------------------------|------------------------| x4  
B|------------------------|------------------------|     
e|------------------------|------------------------|     


Verse 

E|3--3--3--3--3--3--3--3--|7--7--7--7--7--7--7--7--|    E|3--3--3--3--3--3--3--3--|8--8--8--8--7--7--7--7--| 
A|5--5--5--5--5--5--5--5--|9--9--9--9--9--9--9--9--|    A|5--5--5--5--5--5--5--5--|10-10-10-10-9--9--9--9--| 
D|5--5--5--5--5--5--5--5--|9--9--9--9--9--9--9--9--|    D|5--5--5--5--5--5--5--5--|10-10-10-10-9--9--9--9--| 
G|------------------------|------------------------| x3 G|------------------------|------------------------|x2 
B|------------------------|------------------------|    B|------------------------|------------------------| 
e|------------------------|------------------------|    e|------------------------|------------------------| 

E|3--3--3--3--3--3--3--3--|8--8--8--8--8--8--8--8--|8--8--8--8--8--8--8--8--| 
A|5--5--5--5--5--5--5--5--|10-10-10-10-10-10-10-10-|10-10-10-10-10-10-10-10-| 
D|5--5--5--5--5--5--5--5--|10-10-10-10-10-10-10-10-|10-10-10-10-10-10-10-10-| 
G|------------------------|------------------------|------------------------| 
B|------------------------|------------------------|------------------------| 
e|------------------------|------------------------|------------------------| 


Alternative Verse 

E|------------------------|------------------------|    E|------------------------|------------------------| 
A|3--3--3--3--3--3--3--3--|5--5--5--5--5--5--5--5--|    A|3--3--3--3--3--3--3--3--|5--5--5--5--12----------| 
D|5--5--5--5--5--5--5--5--|7--7--7--7--7--7--7--7--|    D|5--5--5--5--5--5--5--5--|7--7--7--7--13----------| 
G|5--5--5--5--5--5--5--5--|7--7--7--7--7--7--7--7--| x3 G|5--5--5--5--5--5--5--5--|7--7--7--7--13----------| 
B|------------------------|------------------------|    B|------------------------|------------------------| 
e|------------------------|------------------------|    e|------------------------|------------------------| 


Chorus 

E|3--3--3--3--3--3--3--3--|7--7--7--7--7--7--7--7--|    E|7-----------------------| 
A|5--5--5--5--5--5--5--5--|9--9--9--9--9--9--9--9--|    A|9-----------------------| 
D|5--5--5--5--5--5--5--5--|9--9--9--9--9--9--9--9--|    D|9-----------------------| 
G|------------------------|------------------------| x4 G|------------------------| 
B|------------------------|------------------------|    B|------------------------| 
e|------------------------|------------------------|    e|------------------------| 

-------------------------------------------------------------------------------------------------------------- 
E Standard Tuning 
Easy Song 
Sam Ray, Guitar (vocals) 


Chorus 

E|--------------------------------------|    E|------------------------------------------| 
A|--------------------------------------|    A|------------------------------------------| 
D|--------------------------------------|    D|------------------------------------------| 
G|4-4-4-4-7-7-7-7-11-11-12-12-11-11-7-7-| x3 G|4-4-7-7-11-11-12-12-11-11-7-7-11-11-7-7-4-| 
B|--------------------------------------|    B|------------------------------------------| 
e|--------------------------------------|    e|------------------------------------------| 


Chorus 

E|--------------------------------------|    E|------------------------------------------| 
A|--------------------------------------|    A|------------------------------------------| 
D|--------------------------------------|    D|------------------------------------------| 
G|4-4-4-4-7-7-7-7-11-11-12-12-11-11-7-7-| x3 G|4-4-7-7-11-11-12-12-11-11-7-7-11-11-7-7-4-| 
B|--------------------------------------|    B|------------------------------------------| 
e|--------------------------------------|    e|------------------------------------------| 


Chorus (Alternate): 
E|------------------------------------------------|    E|--------------------------------------------------| 
A|------------------------------------------------|    A|--------------------------------------------------| 
D|------------------------------------------------|    D|--------------------------------------------------| 
G|------------------------------------------------| x3 G|--------------------------------------------------| 
B|12-12-12-12-15-15-15-15-------------------15-15-|    B|12-12-15-15------------------15-15-------15-15-12-| 
e|------------------------14-14-15-15-14-14-------|    e|-----------14-14-15-15-14-14-------14-14----------| 
  

top 5 | teen suicide
top rock'n roll
Outras músicas do artista letras do(a) Teen Suicide
Top cifras »Top artistas »
Petaxxon Comunicação Online
Cifras.com.br - Melhor e mais completo site de cifras e tablaturas do Brasil
Mais de 1 milhão de acordes de músicas cadastradas desde 2003
As informações contidas no nosso site são colaborações de seus usuários e podem conter erros, sendo assim, não nos responsabilizamos sobre nenhuma destas.
close
menos
mais
close
Cor dos acordes:

Cor da letra:

 

save
close
close
 
redimensionar