Cifras e Tablaturas
Teenage Bottlerocket

Teenage Bottlerocket

Instrumental

Cifras Cancelar Versão de Impressão
cifras

Teenage Bottlerocket - Instrumental

fixar na tela  
Exibindo: vídeo-aula ver clipes redimensionar

Tom:

  

e|----------------------------------------------------| 
B|----------------------------------------------------| 
G|----------------------------------------------------| 
D|--10----10----10-10-10----10----10----10-10-9-------| 
A|--10----10----10-10-10----10----10----10-10-9-------| 
E|--8-----8-----8--8--8-----8-----8-----8--8--7-------| 


e|----------------------------------------------------| 
B|----------------------------------------------------| 
G|----------------------------------------------------| 
D|--10----10----10-10-10----10----10----10-10-9-------| 
A|--10----10----10-10-10----10----10----10-10-9-------| 
E|--8-----8-----8--8--8-----8-----8-----8--8--7-------| 


e|----------------------------------------------------| 
B|----------------------------------------------------| 
G|----------------------------------------------------| 
D|--10----10----10-10-10----10----10----10-10-9-------| 
A|--10----10----10-10-10----10----10----10-10-9-------| 
E|--8-----8-----8--8--8-----8-----8-----8--8--7-------| 


e|----------------------------------------------------| 
B|----------------------------------------------------| 
G|----------------------------------------------------| 
D|--10----10----10-10-10----10----10----10-10-9-------| 
A|--10----10----10-10-10----10----10----10-10-9-------| 
E|--8-----8-----8--8--8-----8-----8-----8--8--7-------| 


e|----------------------------------------------------| 
B|----------------------------------------------------| 
G|----------------------------------------------------| 
D|--10----10----10-10-10----10----10----10-10-10------| 
A|--10----10----10-10-10----10----10----10-10-10------| 
E|--8-----8-----8--8--8-----8-----8-----8--8--8-------| 


e|----------------------------------------------------| 
B|----------------------------------------------------| 
G|----------------------------------------------------| 
D|--10----10----10-10-10----10----10----10-10-10------| 
A|--10----10----10-10-10----10----10----10-10-10------| 
E|--8-----8-----8--8--8-----8-----8-----8--8--8-------| 


e|----------------------------------------------------| 
B|----------------------------------------------------| 
G|--12----12----12-12-12----12----12----12-12-12------| 
D|--12----12----12-12-12----12----12----12-12-12------| 
A|--10----10----10-10-10----10----10----10-10-10------| 
E|----------------------------------------------------| 


e|----------------------------------------------------| 
B|----------------------------------------------------| 
G|--10----10----10-10-10----10----10----10-10-10------| 
D|--10----10----10-10-10----10----10----10-10-10------| 
A|--8-----8-----8--8--8-----8-----8-----8--8--8-------| 
E|----------------------------------------------------| 


e|----------------------------------------------------| 
B|----------------------------------------------------| 
G|----------------------------------------------------| 
D|--10----10----10-10-10----10----10----10-10-10------| 
A|--10----10----10-10-10----10----10----10-10-10------| 
E|--8-----8-----8--8--8-----8-----8-----8--8--8-------| 


e|----------------------------------------------------| 
B|----------------------------------------------------| 
G|----------------------------------------------------| 
D|--10----10----10-10-10----10----10----10-10-10------| 
A|--10----10----10-10-10----10----10----10-10-10------| 
E|--8-----8-----8--8--8-----8-----8-----8--8--8-------| 


e|----------------------------------------------------| 
B|----------------------------------------------------| 
G|--12----12----12-12-12----12----12----12-12-12------| 
D|--12----12----12-12-12----12----12----12-12-12------| 
A|--10----10----10-10-10----10----10----10-10-10------| 
E|----------------------------------------------------| 


e|----------------------------------------------------| 
B|----------------------------------------------------| 
G|--10----10----10-10-10----10----10----10-10-10------| 
D|--10----10----10-10-10----10----10----10-10-10------| 
A|--8-----8-----8--8--8-----8-----8-----8--8--8-------| 
E|----------------------------------------------------| 


e|----------------------------------------------------| 
B|----------------------------------------------------| 
G|----------------------------------------------------| 
D|--10----10----10-10-10----10----10----10-10-9-------| 
A|--10----10----10-10-10----10----10----10-10-9-------| 
E|--8-----8-----8--8--8-----8-----8-----8--8--7-------| 


e|----------------------------------------------------| 
B|----------------------------------------------------| 
G|----------------------------------------------------| 
D|--10----10----10-10-10----10----10----10-10-9-------| 
A|--10----10----10-10-10----10----10----10-10-9-------| 
E|--8-----8-----8--8--8-----8-----8-----8--8--7-------| 


e|----------------------------------------------------| 
B|----------------------------------------------------| 
G|----------------------------------------------------| 
D|--10----10----10-10-10----10----10----10-10-9-------| 
A|--10----10----10-10-10----10----10----10-10-9-------| 
E|--8-----8-----8--8--8-----8-----8-----8--8--7-------| 


e|----------------------------------------------------| 
B|----------------------------------------------------| 
G|----------------------------------------------------| 
D|--10----10----10-10-10----10----10----10-10-9-------| 
A|--10----10----10-10-10----10----10----10-10-9-------| 
E|--8-----8-----8--8--8-----8-----8-----8--8--7-------| 


e|----------------------------------------------------| 
B|----------------------------------------------------| 
G|----------------------------------------------------| 
D|--10----10----10-10-10----10----10----10-10-10------| 
A|--10----10----10-10-10----10----10----10-10-10------| 
E|--8-----8-----8--8--8-----8-----8-----8--8--8-------| 


e|----------------------------------------------------| 
B|----------------------------------------------------| 
G|----------------------------------------------------| 
D|--10----10----10-10-10----10----10----10-10-10------| 
A|--10----10----10-10-10----10----10----10-10-10------| 
E|--8-----8-----8--8--8-----8-----8-----8--8--8-------| 


e|----------------------------------------------------| 
B|----------------------------------------------------| 
G|--12----12----12-12-12----12----12----12-12-12------| 
D|--12----12----12-12-12----12----12----12-12-12------| 
A|--10----10----10-10-10----10----10----10-10-10------| 
E|----------------------------------------------------| 


e|----------------------------------------------------| 
B|----------------------------------------------------| 
G|--10----10----10-10-10----10----10----10-10-10------| 
D|--10----10----10-10-10----10----10----10-10-10------| 
A|--8-----8-----8--8--8-----8-----8-----8--8--8-------| 
E|----------------------------------------------------| 


e|----------------------------------------------------| 
B|----------------------------------------------------| 
G|----------------------------------------------------| 
D|--10----10----10-10-10----10----10----10-10-10------| 
A|--10----10----10-10-10----10----10----10-10-10------| 
E|--8-----8-----8--8--8-----8-----8-----8--8--8-------| 


e|----------------------------------------------------| 
B|----------------------------------------------------| 
G|----------------------------------------------------| 
D|--10----10----10-10-10----10----10----10-10-10------| 
A|--10----10----10-10-10----10----10----10-10-10------| 
E|--8-----8-----8--8--8-----8-----8-----8--8--8-------| 


e|----------------------------------------------------| 
B|----------------------------------------------------| 
G|--12----12----12-12-12----12----12----12-12-12------| 
D|--12----12----12-12-12----12----12----12-12-12------| 
A|--10----10----10-10-10----10----10----10-10-10------| 
E|----------------------------------------------------| 


e|----------------------------------------------------| 
B|----------------------------------------------------| 
G|--10----10----10-10-10----10----10----10-10-10------| 
D|--10----10----10-10-10----10----10----10-10-10------| 
A|--8-----8-----8--8--8-----8-----8-----8--8--8-------| 
E|----------------------------------------------------| 


e|----------------------------------------------------| 
B|----------------------------------------------------| 
G|----------------------------------------------------| 
D|--10----10----10-10-10----10----10----10-10-10------| 
A|--10----10----10-10-10----10----10----10-10-10------| 
E|--8-----8-----8--8--8-----8-----8-----8--8--8-------| 


e|----------------------------------------------------| 
B|----------------------------------------------------| 
G|--10----10----10-10-10----10----10----10-10-10------| 
D|--10----10----10-10-10----10----10----10-10-10------| 
A|--8-----8-----8--8--8-----8-----8-----8--8--8-------| 
E|----------------------------------------------------| 


e|----------------------------------------------------| 
B|----------------------------------------------------| 
G|----------------------------------------------------| 
D|--10----10----10-10-10----10----10----10-10-10------| 
A|--10----10----10-10-10----10----10----10-10-10------| 
E|--8-----8-----8--8--8-----8-----8-----8--8--8-------| 


e|----------------------------------------------------| 
B|----------------------------------------------------| 
G|--10----10----10-10-10----10----10----10-10-10------| 
D|--10----10----10-10-10----10----10----10-10-10------| 
A|--8-----8-----8--8--8-----8-----8-----8--8--8-------| 
E|----------------------------------------------------| 


e|----------------------------------------------------| 
B|----------------------------------------------------| 
G|----------------------------------------------------| 
D|--10----10----10-10-10----10----10----10-10-10------| 
A|--10----10----10-10-10----10----10----10-10-10------| 
E|--8-----8-----8--8--8-----8-----8-----8--8--8-------| 


e|----------------------------------------------------| 
B|----------------------------------------------------| 
G|--10----10----10-10-10----10----10----10-10-10------| 
D|--10----10----10-10-10----10----10----10-10-10------| 
A|--8-----8-----8--8--8-----8-----8-----8--8--8-------| 
E|----------------------------------------------------| 


e|----------------------------------------------------| 
B|----------------------------------------------------| 
G|--------------------------10----10----10-10-10------| 
D|--10----10----10-10-10----10----10----10-10-10------| 
A|--10----10----10-10-10----8-----8-----8--8--8-------| 
E|--8-----8-----8--8--8-------------------------------| 


e|----------------------------------------------------| 
B|----------------------------------------------------| 
G|----------------------------------------------------| 
D|--10----10----10-10-10----10----10----10-10-10------| 
A|--10----10----10-10-10----10----10----10-10-10------| 
E|--8-----8-----8--8--8-----8-----8-----8--8--8-------| 


e|----------------------------------------------------| 
B|----------------------------------------------------| 
G|----------------------------------------------------| 
D|--10----10----10-10-10----10----10----10-10-10------| 
A|--10----10----10-10-10----10----10----10-10-10------| 
E|--8-----8-----8--8--8-----8-----8-----8--8--8-------| 


e|----------------------------------------------------| 
B|----------------------------------------------------| 
G|----------------------------------------------------| 
D|--10----10----10-10-10----10----10----10-10-10------| 
A|--10----10----10-10-10----10----10----10-10-10------| 
E|--8-----8-----8--8--8-----8-----8-----8--8--8-------| 


e|----------------------------------------------------| 
B|----------------------------------------------------| 
G|----------------------------------------------------| 
D|--10----10----10-10-10----10----10----10-10-10------| 
A|--10----10----10-10-10----10----10----10-10-10------| 
E|--8-----8-----8--8--8-----8-----8-----8--8--8-------| 


e|----------------------------------------------------| 
B|----------------------------------------------------| 
G|----------------------------------------------------| 
D|--10----10----10-10-10----10----10----10-10-10------| 
A|--10----10----10-10-10----10----10----10-10-10------| 
E|--8-----8-----8--8--8-----8-----8-----8--8--8-------| 


e|----------------------------------------------------| 
B|----------------------------------------------------| 
G|----------------------------------------------------| 
D|--12----12----12-12-12----12----12----12-12-12------| 
A|--12----12----12-12-12----12----12----12-12-12------| 
E|--10----10----10-10-10----10----10----10-10-10------| 


e|----------------------------------------------------| 
B|----------------------------------------------------| 
G|----------------------------------------------------| 
D|--12----12----12-12-12----12----12----12-12-12------| 
A|--12----12----12-12-12----12----12----12-12-12------| 
E|--10----10----10-10-10----10----10----10-10-10------| 


e|----------------------------------------------------| 
B|----------------------------------------------------| 
G|--14----14----14-14-14----14----14----14-14-14------| 
D|--14----14----14-14-14----14----14----14-14-14------| 
A|--12----12----12-12-12----12----12----12-12-12------| 
E|----------------------------------------------------| 


e|----------------------------------------------------| 
B|----------------------------------------------------| 
G|--12----12----12-12-12----12----12----12-12-12------| 
D|--12----12----12-12-12----12----12----12-12-12------| 
A|--10----10----10-10-10----10----10----10-10-10------| 
E|----------------------------------------------------| 


e|----------------------------------------------------| 
B|----------------------------------------------------| 
G|----------------------------------------------------| 
D|--12----12----12-12-12----12----12----12-12-12------| 
A|--12----12----12-12-12----12----12----12-12-12------| 
E|--10----10----10-10-10----10----10----10-10-10------| 


e|----------------------------------------------------| 
B|----------------------------------------------------| 
G|----------------------------------------------------| 
D|--12----12----12-12-12----12----12----12-12-12------| 
A|--12----12----12-12-12----12----12----12-12-12------| 
E|--10----10----10-10-10----10----10----10-10-10------| 


e|----------------------------------------------------| 
B|----------------------------------------------------| 
G|--14----14----14-14-14----14----14----14-14-14------| 
D|--14----14----14-14-14----14----14----14-14-14------| 
A|--12----12----12-12-12----12----12----12-12-12------| 
E|----------------------------------------------------| 


e|----------------------------------------------------| 
B|----------------------------------------------------| 
G|--12----12----12-12-12----12----12----12-12-12------| 
D|--12----12----12-12-12----12----12----12-12-12------| 
A|--10----10----10-10-10----10----10----10-10-10------| 
E|----------------------------------------------------| 


e|----------------------------------------------------| 
B|----------------------------------------------------| 
G|----------------------------------------------------| 
D|--12----12----12-12-12----12----12----12-12-12------| 
A|--12----12----12-12-12----12----12----12-12-12------| 
E|--10----10----10-10-10----10----10----10-10-10------| 


e|----------------------------------------------------| 
B|----------------------------------------------------| 
G|----------------------------------------------------| 
D|--12----12----12-12-12----12----12----12-12-12------| 
A|--12----12----12-12-12----12----12----12-12-12------| 
E|--10----10----10-10-10----10----10----10-10-10------| 


e|----------------------------------------------------| 
B|----------------------------------------------------| 
G|--14----14----14-14-14----14----14----14-14-14------| 
D|--14----14----14-14-14----14----14----14-14-14------| 
A|--12----12----12-12-12----12----12----12-12-12------| 
E|----------------------------------------------------| 


e|----------------------------------------------------| 
B|----------------------------------------------------| 
G|--12----12----12-12-12----12----12----12-12-12------| 
D|--12----12----12-12-12----12----12----12-12-12------| 
A|--10----10----10-10-10----10----10----10-10-10------| 
E|----------------------------------------------------| 


e|----------------------------------------------------| 
B|----------------------------------------------------| 
G|----------------------------------------------------| 
D|--12----12----12-12-12----12----12----12-12-12------| 
A|--12----12----12-12-12----12----12----12-12-12------| 
E|--10----10----10-10-10----10----10----10-10-10------| 


e|----------------------------------------------------| 
B|----------------------------------------------------| 
G|----------------------------------------------------| 
D|--12----12----12-12-12----12----12----12-12-12------| 
A|--12----12----12-12-12----12----12----12-12-12------| 
E|--10----10----10-10-10----10----10----10-10-10------| 


e|----------------------------------------------------| 
B|----------------------------------------------------| 
G|--14----14----14-14-14----14----14----14-14-14------| 
D|--14----14----14-14-14----14----14----14-14-14------| 
A|--12----12----12-12-12----12----12----12-12-12------| 
E|----------------------------------------------------| 


e|----------------------------------------------------| 
B|----------------------------------------------------| 
G|--12----12----12-12-12----12----12----12-12-12------| 
D|--12----12----12-12-12----12----12----12-12-12------| 
A|--10----10----10-10-10----10----10----10-10-10------| 
E|----------------------------------------------------| 


e|----------------------------------------------------| 
B|----------------------------------------------------| 
G|----------------------------------------------------| 
D|--12----12----12-12-12----12----12----12-12-12------| 
A|--12----12----12-12-12----12----12----12-12-12------| 
E|--10----10----10-10-10----10----10----10-10-10------| 


e|----------------------------------------------------| 
B|----------------------------------------------------| 
G|----------------------------------------------------| 
D|--12----12----12-12-12----12----12----12-12-12------| 
A|--12----12----12-12-12----12----12----12-12-12------| 
E|--10----10----10-10-10----10----10----10-10-10------| 


e|----------------------------------------------------|----------|| 
B|----------------------------------------------------|----------|| 
G|----------------------------------------------------|----------|| 
D|--12----12----12-12-12----12----12----12-12-12------|--12s-----|| 
A|--12----12----12-12-12----12----12----12-12-12------|--12s-----|| 
E|--10----10----10-10-10----10----10----10-10-10------|--10s-----|| 


****************************************** 

|s - slide 

****************************************** 
  

top 5 | teenage bottlerocket
top punk rock
Outras músicas do artista letras do(a) Teenage Bottlerocket
Top cifras »Top artistas »
Petaxxon Comunicação Online
Cifras.com.br - Melhor e mais completo site de cifras e tablaturas do Brasil
Mais de 1 milhão de acordes de músicas cadastradas desde 2003
As informações contidas no nosso site são colaborações de seus usuários e podem conter erros, sendo assim, não nos responsabilizamos sobre nenhuma destas.
close
menos
mais
close
Cor dos acordes:

Cor da letra:

 

save
close
close
 
redimensionar