Cifras e Tablaturas
Ten Yard Fight

Ten Yard Fight

Frame Of Mind

Cifras Cancelar Versão de Impressão
cifras

Ten Yard Fight - Frame Of Mind

fixar na tela  
Exibindo: vídeo-aula ver clipes redimensionar

Tom:

  
Intro 
e|---------------------------------------------------------------------------|  
b|---------------------------------------------------------------------------| 
G|--9---5--7-7-7--5-5-5--7-5---9---12--11-11-11-11--7-7-7-7------------------|  
D|--9-2-5--7-7-7--5-5-5--7-5---9-2-12--11-11-11-11--7-7-7-7------------------|  
A|--7-2-3--5-5-5--3-3-3--5-3---7-2-10--9--9--9--9---5-5-5-5------------------|  
E|----0--------------------------0-------------------------------------------|  
           PMPMPM PMPMPM PMPM 

e|---------------------------------------------------------------------------|  
b|---------------------------------------------------------------------------|  
G|--9-9-9-9-10-9-9-9-9-9-10-9-9-9-9-9-10--5-5-5-5--7-7-7--7-5----------------|  
D|--9-9-9-9-10-9-9-9-9-9-10-9-9-9-9-9-10--5-5-5-5--7-7-7--7-5----------------|  
A|--7-7-7-7/8--7-7-7-7-7/8--7-7-7-7-7/8---3-3-3-3--5-5-5--5/3----------------|  
E|---------------------------------------------------------------------------| 

e|---------------------------------------------------------------------------|  
b|---------------------------------------------------------------------------|  
G|--9-9-9-9-10-9-9-9-9-9-10-9-9-9-9-9-10---12-12-12-12-12-12--9--------------|  
D|--9-9-9-9-10-9-9-9-9-9-10-9-9-9-9-9-10---12-12-12-12-12-12--9--------------|  
A|--7-7-7-7/8--7-7-7-7-7/8--7-7-7-7-7/8----10-10-10-10-10-10--7--------------|  
E|---------------------------------------------------------------------------|  

Verse 
e|---------------------------------------------------------------------------|  
b|---------------------------------------------------------------------------|  
G|--9-9-9-9-7-10--9-9-9-9--5-5-5--7-7-7--9-9-9-9-9-9-9-----------------------|  
D|--9-9-9-9-7-10--9-9-9-9--5-5-5--7-7-7--9-9-9-9-9-9-9-----------------------|  
A|--7-7-7-7-5/8---7-7-7-7--3-3-3--5-5-5--7-7-7-7-7-7-7-----------------------|  
E|---------------------------------------------------------------------------|  
                                              
e|---------------------------------------------------------------------------|  
b|---------------------------------------------------------------------------|  
G|--9-9-9-9-7-10--9-9-9-9--12-12-12-12-12-12--11-11-11-----------------------|  
D|--9-9-9-9-7-10--9-9-9-9--12-12-12-12-12-12--11-11-11-----------------------|  
A|--7-7-7-7-5/8---7-7-7-7--10-10-10-10-10-10--9--9--9------------------------|  
E|---------------------------------------------------------------------------|  

e|---------------------------------------------------------------------------|  
b|---------------------------------------------------------------------------|  
G|--9-9-9-9-7-10--9-9-9-9--5-5-5--7-7-7--9-9-9-9-9-9-9-----------------------|  
D|--9-9-9-9-7-10--9-9-9-9--5-5-5--7-7-7--9-9-9-9-9-9-9-----------------------|  
A|--7-7-7-7-5/8---7-7-7-7--3-3-3--5-5-5--7-7-7-7-7-7-7-----------------------|  
E|---------------------------------------------------------------------------|  
                                             PMPMPMPMPM 

e|---------------------------------------------------------------------------|  
b|---------------------------------------------------------------------------|  
G|--9-9-9-9-7-10--9-9-9-9--12-12-12-12-12-12--11-11-11-----------------------|  
D|--9-9-9-9-7-10--9-9-9-9--12-12-12-12-12-12--11-11-11-----------------------|  
A|--7-7-7-7-5/8---7-7-7-7--10-10-10-10-10-10--9--9--9------------------------|  
E|---------------------------------------------------------------------------|  

e|---------------------------------------------------------------------------|  
b|---------------------------------------------------------------------------|  
G|--9-9-9-9-7-10--9-9-9-9--5-5-5--7-7-7--9-9-9-9-9-9-9-----------------------|  
D|--9-9-9-9-7-10--9-9-9-9--5-5-5--7-7-7--9-9-9-9-9-9-9-----------------------|  
A|--7-7-7-7-5/8---7-7-7-7--3-3-3--5-5-5--7-7-7-7-7-7-7-----------------------|  
E|---------------------------------------------------------------------------|  
                                             PMPMPMPMPM 

e|---------------------------------------------------------------------------|  
b|---------------------------------------------------------------------------|  
G|--9-9-9-9-7-10--9-9-9-9--12-12-12-12-12-12--11-11-11-----------------------|  
D|--9-9-9-9-7-10--9-9-9-9--12-12-12-12-12-12--11-11-11-----------------------|  
A|--7-7-7-7-5/8---7-7-7-7--10-10-10-10-10-10--9--9--9------------------------|  
E|---------------------------------------------------------------------------|  

Chorus  
e|---------------------------------------------------------------------------|  
b|---------------------------------------------------------------------------|  
G|--7-7-7-7-7-7-----------------------7-7-7-7-7-7-------9-9-9-9-9-9----------|  
D|--7-7-7-7-7-7--5-4--2-2-2-2-2-2-2---7-7-7-7-7-7--5-4--9-9-9-9-9-9----------| x2 
A|--5-5-5-5-5-5--5-4--2-2-2-2-2-2-2---5-5-5-5-5-5--5-4--7-7-7-7-7-7----------|  
E|---------------3-2--0-0-0-0-0-0-0----------------3-2-----------------------|  
                      PMPMPMPMPMPMPM 

Verse 
e|---------------------------------------------------------------------------|  
b|---------------------------------------------------------------------------|  
G|--9-9-9-9-7-10--9-9-9-9--5-5-5--7-7-7--9-9-9-9-9-9-9-----------------------|  
D|--9-9-9-9-7-10--9-9-9-9--5-5-5--7-7-7--9-9-9-9-9-9-9-----------------------|  
A|--7-7-7-7-5/8---7-7-7-7--3-3-3--5-5-5--7-7-7-7-7-7-7-----------------------|  
E|---------------------------------------------------------------------------|  
                                             PMPMPMPMPM 

e|---------------------------------------------------------------------------|  
b|---------------------------------------------------------------------------|  
G|--9-9-9-9-7-10--9-9-9-9--12-12-12-12-12-12--11-11-11-----------------------|  
D|--9-9-9-9-7-10--9-9-9-9--12-12-12-12-12-12--11-11-11-----------------------|  
A|--7-7-7-7-5/8---7-7-7-7--10-10-10-10-10-10--9--9--9------------------------|  
E|---------------------------------------------------------------------------|  

e|---------------------------------------------------------------------------|  
b|---------------------------------------------------------------------------|  
G|--9-9-9-9-7-10--9-9-9-9--5-5-5--7-7-7--9-9-9-9-9-9-9-----------------------|  
D|--9-9-9-9-7-10--9-9-9-9--5-5-5--7-7-7--9-9-9-9-9-9-9-----------------------|  
A|--7-7-7-7-5/8---7-7-7-7--3-3-3--5-5-5--7-7-7-7-7-7-7-----------------------|  
E|---------------------------------------------------------------------------|  
                                             PMPMPMPMPM 

e|---------------------------------------------------------------------------|  
b|---------------------------------------------------------------------------|  
G|--9-9-9-9-7-10--9-9-9-9--12-12-12-12-12-12--11-11-11-----------------------|  
D|--9-9-9-9-7-10--9-9-9-9--12-12-12-12-12-12--11-11-11-----------------------|  
A|--7-7-7-7-5/8---7-7-7-7--10-10-10-10-10-10--9--9--9------------------------|  
E|---------------------------------------------------------------------------| 

Chorus  
e|---------------------------------------------------------------------------|  
b|---------------------------------------------------------------------------|  
G|--7-7-7-7-7-7-----------------------7-7-7-7-7-7-------9-9-9-9-9-9----------|  
D|--7-7-7-7-7-7--5-4--2-2-2-2-2-2-2---7-7-7-7-7-7--5-4--9-9-9-9-9-9----------| x2 
A|--5-5-5-5-5-5--5-4--2-2-2-2-2-2-2---5-5-5-5-5-5--5-4--7-7-7-7-7-7----------|  
E|---------------3-2--0-0-0-0-0-0-0----------------3-2-----------------------|  
                      PMPMPMPMPMPMPM 

Outro  
e|---------------------------------------------------------------------------|  
b|---------------------------------------------------------------------------|  
G|--9-9-9-9-9-9-9-9-9-9-------9----------------------------------------------|  
D|--9-9-9-9-9-9-9-9-9-9--2-2--9----------------------------------------------|  
A|--7-7-7-7-7-7-7-7-7-7--2-2--7----------------------------------------------| 
E|-----------------------0-0-------------------------------------------------|  
                         PMPM 

*********************************** 

| PM  Palm muting 

*********************************** 
  

top 5 | ten yard fight
top rock'n roll
Outras músicas do artista letras do(a) Ten Yard Fight
Top cifras »Top artistas »
Petaxxon Comunicação Online
Cifras.com.br - Melhor e mais completo site de cifras e tablaturas do Brasil
Mais de 1 milhão de acordes de músicas cadastradas desde 2003
As informações contidas no nosso site são colaborações de seus usuários e podem conter erros, sendo assim, não nos responsabilizamos sobre nenhuma destas.
close
menos
mais
close
Cor dos acordes:

Cor da letra:

 

save
close
close
 
redimensionar