Cifras e Tablaturas
Ten Yard Fight

Ten Yard Fight

Stronger Than Before

Cifras Cancelar Versão de Impressão
cifras

Ten Yard Fight - Stronger Than Before

fixar na tela  
Exibindo: vídeo-aula ver clipes redimensionar

Tom:

  
Intro  
e|----------------------------------| 
B|----------------------------------| 
G|--7-7-7--5-5-5--10-10-10----5--7--| 
D|--7-7-7--5-5-5--10-10-10--7-5--7--| x2 
A|--5-5-5--3-3-3--8--8--8---7-3--5--| 
E|--------------------------5-------| 

Verse 
e|----------------------------------------| 
B|----------------------------------------| 
G|--7-7-7--5-5-5--10-10-10----5-----------| 
D|--7-7-7--5-5-5--10-10-10--7-5-----------| x4 
A|--5-5-5--3-3-3--8--8--8---7-3-----------| 
E|--------------------------5-------------| 

Chorus                                                             
e|--------------------------|----------------------------------|----------------------------------|    
B|--------------------------|----------------------------------|----------------------------------|    
G|--9-9-9-9-9--12-12-12-12--|--7-7-7--10-10--7-7-7----5--------|--7-7-7--10-10--7-7-7----5--------| 
D|--------------------------|--7-7-7--10-10--7-7-7--7-5--------|--7-7-7--10-10--7-7-7--7-5--------| x2 
A|--7-7-7-7-7--10-10-10-10--|--5-5-5--8--8---5-5-5--7-3--------|--5-5-5--8--8---5-5-5--7-3--------|  
E|--------------------------|-----------------------5----------|-----------------------5----------|   
                               PMPMPM        PMPMPM               PMPMPM        PMPMPM 
Bridge 
e|---------| 
B|---------|  
G|-7---5-7-| 
D|-7-5-5-7-| 
A|-5-5-3-5-| 
E|---3-----| 

Verse 
e|----------------------------------------| 
B|----------------------------------------| 
G|--7-7-7--5-5-5--10-10-10----5-----------| 
D|--7-7-7--5-5-5--10-10-10--7-5-----------| x4 
A|--5-5-5--3-3-3--8--8--8---7-3-----------| 
E|--------------------------5-------------| 

Chorus                                                             
e|--------------------------|----------------------------------|----------------------------------|    
B|--------------------------|----------------------------------|----------------------------------|    
G|--9-9-9-9-9--12-12-12-12--|--7-7-7--10-10--7-7-7----5--------|--7-7-7--10-10--7-7-7----5--------| 
D|--------------------------|--7-7-7--10-10--7-7-7--7-5--------|--7-7-7--10-10--7-7-7--7-5--------| x2 
A|--7-7-7-7-7--10-10-10-10--|--5-5-5--8--8---5-5-5--7-3--------|--5-5-5--8--8---5-5-5--7-3--------|  
E|--------------------------|-----------------------5----------|-----------------------5----------|   
                               PMPMPM        PMPMPM               PMPMPM        PMPMPM 
Break 
e|---------------| 
B|---------------| 
G|--7----5-------| 
D|--7--7-5-------| x4 
A|--5--7-3-------| 
E|-----5---------| 

e|------------------------------------------------| 
B|------------------------------------------------| 
G|--7-7-7-7--10-10-10--9-9-9--5-5-5--7-7-7-7----5-| 
D|--7-7-7-7--10-10-10--9-9-9--5-5-5--7-7-7-7--7-5-| x4 (Palm mute first two times) 
A|--5-5-5-5--8--8--8---7-7-7--3-3-3--5-5-5-5--7-3-| 
E|--------------------------------------------5---| 

e|----------| 
B|----------| 
G|--7----5--| 
D|--7--5-5--| x2 
A|--5--5-3--| 
E|-----3----| 

Outro 
e|----------------------------------------| 
B|----------------------------------------| 
G|--7-7-7--5-5-5--10-10-10----5-----------| 
D|--7-7-7--5-5-5--10-10-10--7-5-----------| x4 
A|--5-5-5--3-3-3--8--8--8---7-3-----------| 
E|--------------------------5-------------| 

e|----------------------------------| 
B|----------------------------------| 
G|--7--7-7--7-----------------------| 
D|--7--7-7--7-----------------------| 
A|--5--5-5--5-----------------------| 
E|----------------------------------| 

*********************************** 

| PM  Palm muting 

*********************************** 
  

top 5 | ten yard fight
top rock'n roll
Outras músicas do artista letras do(a) Ten Yard Fight
Top cifras »Top artistas »
Petaxxon Comunicação Online
Cifras.com.br - Melhor e mais completo site de cifras e tablaturas do Brasil
Mais de 1 milhão de acordes de músicas cadastradas desde 2003
As informações contidas no nosso site são colaborações de seus usuários e podem conter erros, sendo assim, não nos responsabilizamos sobre nenhuma destas.
close
menos
mais
close
Cor dos acordes:

Cor da letra:

 

save
close
close
 
redimensionar