Cifras e Tablaturas
Ten Yard Fight

Ten Yard Fight

The Only Way

Cifras Cancelar Versão de Impressão
cifras

Ten Yard Fight - The Only Way

fixar na tela  
Exibindo: vídeo-aula ver clipes redimensionar

Tom:

  
Intro 
e|-----------| 
B|-----------| 
G|-2---3-----| 
D|-2-3-3-2---| x3 
A|-0-3-1-2---| 
E|---1---0---| 

e|-------------------------------| 
B|-------------------------------| 
G|-2---3-------------------------| 
D|-2-3-3-2---2-2-2-2-2-2-2-2-2-2-| x4 
A|-0-3-1-2---2-2-2-2-2-2-2-2-2-2-| 
E|---1---0---0-0-0-0-0-0-0-0-0-0-| 
             PMPMPMPMPMPMPMPMPMPM 

e|--------------------------------| 
B|--------------------------------| 
G|-2-2--4-4--2-4------------------| 
D|-2-2--4-4--2-4---2--------------| 
A|-0-0--2-2--0-2---2--------------| 
E|-----------------0-**SCRAPE**-| 

Verse 
e|---------------------------------------| 
B|---------------------------------------| 
G|-9--9-7-9--9-5--5-------9--9-7-9--9-10-| 
D|-9--9-7-9--9-5--5-5--3--9--9-7-9--9-10-| x3 
A|-7--7-5-7--7-3--3-5--3--7--7-5-7--7-8.-| 
E|------------------3--1-----------------| 

Chorus 
e|------------------------| 
B|------------------------| 
G|------------------3---3-| 
D|-2--x-x-x-x-x-x---3-3-3-| x2 
A|-2--x-x-x-x-x-x---1-3-1-| 
E|-0--x-x-x-x-x-x-----1---| 
   
Verse 
e|---------------------------------------| 
B|---------------------------------------| 
G|-9--9-7-9--9-5--5-------9--9-7-9--9-10-| 
D|-9--9-7-9--9-5--5-5--3--9--9-7-9--9-10-| x3 
A|-7--7-5-7--7-3--3-5--3--7--7-5-7--7-8.-| 
E|------------------3--1-----------------| 

Chorus 
e|------------------------| 
B|------------------------| 
G|------------------3---3-| 
D|-2--x-x-x-x-x-x---3-3-3-| x2 
A|-2--x-x-x-x-x-x---1-3-1-| 
E|-0--x-x-x-x-x-x-----1---| 

Outro 
e|-----------| 
B|-----------| 
G|-2---3-----| 
D|-2-3-3-2---|  
A|-0-3-1-2---| 
E|---1---0---| 

e|-------------------------------| 
B|-------------------------------| 
G|-2---3-------------------------| 
D|-2-3-3-2---2-2-2-2-2-2-2-2-2-2-|  
A|-0-3-1-2---2-2-2-2-2-2-2-2-2-2-| 
E|---1---0---0-0-0-0-0-0-0-0-0-0-| 
             PMPMPMPMPMPMPMPMPMPM 

e|-----------| 
B|-----------| 
G|-2---3-----| 
D|-2-3-3-2---|  
A|-0-3-1-2---| 
E|---1---0---| 

e|-------------------------------| 
B|-------------------------------| 
G|-2---3-------------------------| 
D|-2-3-3-2---2-2-2-2-2-2-2-2-2-2-| x3  
A|-0-3-1-2---2-2-2-2-2-2-2-2-2-2-| 
E|---1---0---0-0-0-0-0-0-0-0-0-0-| 
             PMPMPMPMPMPMPMPMPMPM 

e|-----------| 
B|-----------| 
G|-2---3-----| 
D|-2-3-3-2---|  
A|-0-3-1-2---| 
E|---1---0---| 

e|-------------------------------| 
B|-------------------------------| 
G|-2---3-------------------------| 
D|-2-3-3-2---2-2-2-2-2-2-2-2-2-2-|  
A|-0-3-1-2---2-2-2-2-2-2-2-2-2-2-| 
E|---1---0---0-0-0-0-0-0-0-0-0-0-| 
             PMPMPMPMPMPMPMPMPMPM 

e|-----------| 
B|-----------| 
G|-2---3-----| 
D|-2-3-3-2---|  
A|-0-3-1-2---| 
E|---1---0---| 

*********************************** 

| x   Dead note 
| PM  Palm muting 

*********************************** 
  

top 5 | ten yard fight
top rock'n roll
Outras músicas do artista letras do(a) Ten Yard Fight
Top cifras »Top artistas »
Petaxxon Comunicação Online
Cifras.com.br - Melhor e mais completo site de cifras e tablaturas do Brasil
Mais de 1 milhão de acordes de músicas cadastradas desde 2003
As informações contidas no nosso site são colaborações de seus usuários e podem conter erros, sendo assim, não nos responsabilizamos sobre nenhuma destas.
close
menos
mais
close
Cor dos acordes:

Cor da letra:

 

save
close
close
 
redimensionar