Cifras e Tablaturas
Testemunhas de Jeová

Testemunhas de Jeová

O Pedido Amoroso De Jeová

Cifras Cancelar Versão de Impressão
cifras

Testemunhas de Jeová - O Pedido Amoroso De Jeová

fixar na tela  
Exibindo: vídeo-aula ver clipes redimensionar

Tom:

  
E|---------7-5-------------| 
B|-9-9-7-9----9-7---5-5-7-9| 
G|-------------------------| 
D|-------------------------| 
A|-------------------------| 
E|-------------------------| 
  

E|-7-----------------------| 
B|--5-4-5-7-9-5-4---2-2-4-5| 
G|-------------------------| 
D|-------------------------| 
A|-------------------------| 
E|-------------------------| 
  

E|-------------------------| 
B|-5-5-4-5-5-4-5-5--5-7-4-0| 
G|-------------------------| 
D|-------------------------| 
A|-------------------------| 
E|-------------------------| 
  

E|-------------------------| 
B|-0-9-7-9-9-7-9-9-7-7-9-10| 
G|-------------------------| 
D|-------------------------| 
A|-------------------------| 
E|-------------------------| 
  

E|-------------------------| 
B|-9-10-12-12--9-10-12-12-5| 
G|-------------------------| 
D|-------------------------| 
A|-------------------------| 
E|-------------------------| 
  

E|-------------------------| 
B|-5-12-10-10-9-10-14-7----| 
G|-------------------------| 
D|-------------------------| 
A|-------------------------| 
E|-------------------------| 
  

E|-------------------------| 
B|-7-10-9-7-7-9-4-7-5------| 
G|-------------------------| 
D|-------------------------| 
A|-------------------------| 
E|-------------------------| 
  

E|-------------------------| 
B|-5-5-7-10--9-5-7-5-------| 
G|-------------------------| 
D|-------------------------| 
A|-------------------------| 
E|-------------------------| 
  

top 5 | testemunhas de jeová
top gospel
Outras músicas do artista letras do(a) Testemunhas de Jeová
Top cifras »Top artistas »
Petaxxon Comunicação Online
Cifras.com.br - Melhor e mais completo site de cifras e tablaturas do Brasil
Mais de 1 milhão de acordes de músicas cadastradas desde 2003
As informações contidas no nosso site são colaborações de seus usuários e podem conter erros, sendo assim, não nos responsabilizamos sobre nenhuma destas.
close
menos
mais
close
Cor dos acordes:

Cor da letra:

 

save
close
close
 
redimensionar