Cifras e Tablaturas
Texas In July

Texas In July

Father Time

Cifras Cancelar Versão de Impressão
cifras

Texas In July - Father Time

fixar na tela  
Exibindo: vídeo-aula ver clipes redimensionar
  
Riff 1, Guitar 1 & 2 - 00:00 - 00:22 
- ----------------------------------------------------------------- 
- -6---------------8---------------6---------------8--------------- 
- ---7---------------7-------5/7-----7---------------7-------5/7--- 
- -----0-5-0-7-0-0-----5---------5-----0-5-0-7-0-0-----5---------5- 
- -----------------------0h3-----------------------------0h3------- 
- ----------------------------------------------------------------- 
PM     .   .   ...                     .   .   ... 
- ----------------------------------------------------------------- 
- ----------------------------------------------------------------- 
- ----------------------------------------------------------------- 
- -0-------------------------------0------------------------------- 
- -0-------------------------------0------------------------------- 
- -0-------------------------------0------------------------------- 


- ----------------------------------------------------------------- 
- -6---------------8---------------6---------------8--------------- 
- ---7---------------7-------5/7-----7---------------7-------5/7--- 
- -----0-5-0-7-0-0-----5---------5-----0-5-0-7-0-0-----5---------5- 
- -----------------------0h3-----------------------------0h3------- 
- ----------------------------------------------------------------- 
PM     .   .   ...                     .   .   ... 
- ------------------------------------------------10p8------------- 
- -----------------------------------------------------8----------- 
- -------------------------------------------------------9h10------ 
- -------------------------------------0---------------------7h8--- 
- -0-0---0-0---0-0---0---0---0-0-0-0---0---0-0-------------------8- 
- -0-0---0-0---0-0---0---0---0-0-0-0---0---0-0--------------------- 
PM .................................       ... 


- ----------------------------------------------------------------- 
- -6---------------8---------------6---------------8--------------- 
- ---7---------------7-------5/7-----7---------------7-------5/7--- 
- -----0-5-0-7-0-0-----5---------5-----0-5-0-7-0-0-----5---------5- 
- -----------------------0h3-----------------------------0h3------- 
- ----------------------------------------------------------------- 
PM     .   .   ...                     .   .   ... 
- ------------------------------------------------10p8------------- 
- -----------------------------------------------------8----------- 
- -------------------------------------------------------9h10------ 
- -------------------------------------0---------------------7h8--- 
- -0-0---0-0---0-0---0---0---0-0-0-0---0---0-0-------------------8- 
- -0-0---0-0---0-0---0---0---0-0-0-0---0---0-0--------------------- 
PM .................................       ... 


- ----------------------------------------------------------------- 
- ----------------------------------------------------------------- 
- -7(16x)--------------------------10(x8)----------12(x8)---------- 
- -0-------------------------------0---------------0--------------- 
- -5-------------------------------8---------------10-------------- 
- ----------------------------------------------------------------- 
- 
- ----------------------------------------------------------------- 
- -6---------------8---------------6---------------8--------------- 
- ---7---------------7-------5/7-----7---------------7-------5/7--- 
- -----0-5-0-7-0-0-----5---------5-----0-5-0-7-0-0-----5---------5- 
- -----------------------0h3-----------------------------0h3------- 
- ----------------------------------------------------------------- 
PM     .   .   ...                     .   .   ... 


- ----------------------------------------------------------------- 
- ----------------------------------------------------------------- 
- -7(16x)--------------------------10(x8)----------14(x8)---------- 
- -0-------------------------------0---------------0--------------- 
- -5-------------------------------8---------------12-------------- 
- ----------------------------------------------------------------- 
- 
- ----------------------------------------------------------------- 
- -6---------------8---------------6---------------8--------------- 
- ---7---------------7-------5/7-----7---------------7-------5/7--- 
- -----0-5-0-7-0-0-----5---------5-----0-5-0-7-0-0-----5---------5- 
- -----------------------0h3-----------------------------0h3------- 
- ----------------------------------------------------------------- 
PM     .   .   ...                     .   .   ... 


- ----------------------------------------------------------------- 
- ----------------------------------------------------------------- 
- ----------------------------------------------------------------- 
- -0--------------------------------------------------------------- 
- -0--------------------------------------------------------------- 
- -0--------------------------------------------------------------- 
- 
- ----------------------------------------------------------------- 
- -6---------------8---------------6---------------8--------------- 
- ---7---------------7-------5/7-----7---------------7-------5/7--- 
- -----0-5-0-7-0-0-----5---------5-----0-5-0-7-0-0-----5---------5- 
- -----------------------0h3-----------------------------0h3------- 
- ----------------------------------------------------------------- 
PM     .   .   ...                     .   .   ... 


Riff 2a - 00:22 - 00:38 - x2 
- ----------------------------------------------------------------- 
- ----------------------------------------------------------------- 
- ----------------------------------------------------------------- 
- -------------------------------------0--------------------------- 
- -0-0---0-0---0---0---0-0-0---0-0-0---0---0-0---0-0---------0-0--- 
- -0-0---0-0---0---0---0-0-0---0-0-0---0---0-0---0-0---------0-0--- 
PM .................................       ..................... 

- ----------------------------------------------------------------- 
- ----------------------------------------------------------------- 
- ----------------------------------------------------------------- 
- -------------------------------------0--------------------------- 
- -0-0---0-0---0---0---0-0-0---0-0-0---0---0-0---0-0---0-----0-0--- 
- -0-0---0-0---0---0---0-0-0---0-0-0---0---0-0---0-0---0-----0-0--- 
PM .................................       ..................... 

Riff 2b - 00:30 - 00:42 - x3 
- ---------------------------------------------------------------------- 
- -6-----------8-----------8-------10------------10------------10------- 
- ---3-0-5-3-0---5-0-7-5-0---5-0-0----7-0-10-7-0----7-0-10-7-0----7-0-0- 
- ---------------------------------------------------------------------- 
- ---------------------------------------------------------------------- 
- ---------------------------------------------------------------------- 
PM     .     .     .     .     ...      .      .      .      .      ... 

Riff 2c - 00:38 - 00:42 
- ----------------------------------------------------------------- 
- ----------------------------------------------------------------- 
- ----------------------------------------------------------------- 
- -8---8---8---8---8---8---8---8---10--10--10--10--10--10--10--10-- 
- -8---8---8---8---8---8---8---8---10--10--10--10--10--10--10--10-- 
- -8---8---8---8---8---8---8---8---10--10--10--10--10--10--10--10-- 

Riff 3 - 00:42 - 00:58 - x2 
- ----------------------------------------------------------------- 
- ----------------------------------------------------------------- 
- ----------------------------------------------------------------- 
- ----------------------------------------------------------------- 
- -0-0-0---------------------------0-0-0---0-0-0---0-----0-0---0--- 
- -0-0-0---------------------------0-0-0---0-0-0---0-----0-0---0--- 
PM ............................................................... 

- ----------------------------------------------------------------- 
- ----------------------------------------------------------------- 
- ----------------------------------------------------------------- 
- -----0-------------------------------------------0--------------- 
- -0-0-0-------0-------------------0-0-0---0-0-0---0-----0-0---0--- 
- -0-0-0-------0-------------------0-0-0---0-0-0---0-----0-0---0--- 
PM ...         .                   .............         ....... 


Riff 4, Guitar 1 & 2 - 00:58 - 01:01 
- ------------------------------------------------------------- 
- ------------------------------------------------------------- 
- -10---10-10-10-10-10-10-------------------------------------- 
- -0----0--0--0--0--0--0--8-8-7-7-5---10---0------------------- 
- -8----8--8--8--8--8--8--8-8-7-7-5---10---0------------------- 
- ------------------------8-8-7-7-5---10---0------------------- 
- 
- ------------------------------------------------------------- 
- -----------------------------------------10--------10-------- 
- -10---10-10-10-10-10-10---------------------9---------9------ 
- -0----0--0--0--0--0--0--8-8-7-7-5---10--------10p0------10p0- 
- -8----8--8--8--8--8--8--8-8-7-7-5---10----------------------- 
- ------------------------8-8-7-7-5---10----------------------- 


Riff 5 - 01:01 - 01:17 
- -------------------------------------------------------------------------- 
- ---------------------------10-----------------------------8--------------- 
- -7------------------9---------9-------------10/12-----------7-------5/7--- 
- ---5-0-8-------10-----10p0------10p0-12p0h8-------10h12p0-----5---------5- 
- ----------------------------------------------------------------0h3------- 
- ---------7p0-8----7------------------------------------------------------- 
PM     . 


Riff 6, Guitar 1 & 2 - 01:17 - 01:49 - x4 
- ----------------------------------------------------------------- 
- -8(x16)--------------------------11(x16)------------------------- 
- -7-------------------------------10------------------------------ 
- -5-------------------------------8------------------------------- 
- -5-------------------------------8------------------------------- 
- -5-------------------------------8------------------------------- 
- 
- ----------------------------------------------------------------- 
- -6---------------8---------------6---------------8--------------- 
- ---7---------------7-------5/7-----7---------------7-------5/7--- 
- -----0-5-0-7-0-0-----5---------5-----0-5-0-7-0-0-----5---------5- 
- -----------------------0h3-----------------------------0h3------- 
- ----------------------------------------------------------------- 
PM     .   .   ...                     .   .   ... 


- ----------------------------------------------------------------- 
- -6(x16)--------------------------8(x8)-----------6(x8)----------- 
- -5-------------------------------7---------------5--------------- 
- -3-------------------------------5---------------3--------------- 
- -3-------------------------------5---------------3--------------- 
- -3-------------------------------5---------------3--------------- 
- 
- ----------------------------------------------------------------- 
- -6---------------8---------------6---------------8--------------- 
- ---7---------------7-------5/7-----7---------------7-------5/7--- 
- -----0-5-0-7-0-0-----5---------5-----0-5-0-7-0-0-----5---------5- 
- -----------------------0h3-----------------------------0h3------- 
- ----------------------------------------------------------------- 
PM     .   .   ...                     .   .   ... 


Riff 7, Guitar 1 & 2 - 01:49 - 02:05 - x2 
- ----------------------------------------------------------------- 
- ----------------------------------------------------------------- 
- ----------------------------------------------------------------- 
- ----------------------------------------------------------------- 
- -0-----0-0-0-0---0-----------0-0-----0---0---0-0-0---0-0---0-0--- 
- -0-----0-0-0-0---0-----------0-0-----0---0---0-0-0---0-0---0-0--- 
PM ............................................................... 
- ----------------------------------------------------------------- 
- ----------------------------------------------------------------- 
- -14(x16)-------------------------15(x16)------------------------- 
- -0-------------------------------0------------------------------- 
- -12------------------------------13------------------------------ 
- ----------------------------------------------------------------- 


- ----------------------------------------------------------------- 
- ----------------------------------------------------------------- 
- ----------------------------------------------------------------- 
- ----------------------------------------------------------------- 
- -0-----0-0-0-0---0-----------0-0-----0---0---0-0-0---0-0---0-0--- 
- -0-----0-0-0-0---0-----------0-0-----0---0---0-0-0---0-0---0-0--- 
PM ............................................................... 
- ----------------------------------------------------------------- 
- ----------------------------------------------------------------- 
- -10(x16)-------------------------17(x8)----------16(x8)---------- 
- -0-------------------------------0---------------0--------------- 
- -8-------------------------------15--------------14-------------- 
- ----------------------------------------------------------------- 


Riff 8, Guitar 1 & 2 - 02:05 - 02:21 - x2 
- ----------------------------------------------------------------- 
- -8---8---8---8---8---8---8---8---11--11--11--11--11--11--11--11-- 
- -7---7---7---7---7---7---7---7---10--10--10--10--10--10--10--10-- 
- -5---5---5---5---5---5---5---5---8---8---8---8---8---8---8---8--- 
- -5---5---5---5---5---5---5---5---8---8---8---8---8---8---8---8--- 
- -5---5---5---5---5---5---5---5---8---8---8---8---8---8---8---8--- 
- 
- ---------------------------------------------------8------------- 
- -------------10------------------------------11----------11------ 
- -------------------10------------------10------------------------ 
- -------12----------------12------8------------------------------- 
- -12-------------------------------------------------------------- 
- ----------------------------------------------------------------- 


- ----------------------------------------------------------------- 
- -6---6---6---6---6---6---6---6---8---8---8---8---8---8---8---8--- 
- -5---5---5---5---5---5---5---5---7---7---7---7---7---7---7---7--- 
- -3---3---3---3---3---3---3---3---5---5---5---5---5---5---5---5--- 
- -3---3---3---3---3---3---3---3---5---5---5---5---5---5---5---5--- 
- -3---3---3---3---3---3---3---3---5---5---5---5---5---5---5---5--- 
- 
- ----------------------------------------------------------------- 
- --------------------10------------------------------------------- 
- --------------10----------10-----17(x8)----------16(x8)---------- 
- -------10------------------------0---------------0--------------- 
- -8-------------------------------15--------------14-------------- 
- ----------------------------------------------------------------- 


Riff 9, Guitar 1 & 2 - 02:21 - 02:37 - x2 
- ------------------------------------------------------------------ 
- ------------------------------------------------------------------ 
- -7(x16)--------------------------10(x16)-------------------------- 
- -0-------------------------------0-------------------------------- 
- -5-------------------------------8-------------------------------- 
- ------------------------------------------------------------------ 
- 
- ------------------------------------------------------------------ 
- -----10----10----10----10------10----11----11----11----11------11- 
- ---10--10----10----10----10--10----10--10----10----10----10--10--- 
- -12------12----12----12----12----8-------8-----8-----8-----8------ 
- ------------------------------------------------------------------ 
- ------------------------------------------------------------------ 


- ------------------------------------------------------------------ 
- ------------------------------------------------------------------ 
- -5(x16)---------------------------12(x16)------------------------- 
- -0--------------------------------0------------------------------- 
- -3--------------------------------10------------------------------ 
- ------------------------------------------------------------------ 
- 
- ------------------------------------------------------------------ 
- ------------------------------------------------------------------ 
- -----10----10----10----10------10-17(x8)----------16(x8)---------- 
- ---10--10----10----10----10--10---0---------------0--------------- 
- -8-------8-----8-----8-----8------15--------------14-------------- 
- ------------------------------------------------------------------ 


Riff 10, Guitar 1 & 2 - 02:37 - 03:09 - x4 
- ----------------------------------------------------------------- 
- ----------------------------------------------------------------- 
- -7---7---7---7---7---7---7---7---10--10--10--10--10--10--10--10-- 
- -0---0---0---0---0---0---0---0---0---0---0---0---0---0---0---0--- 
- -5---5---5---5---5---5---5---5---8---8---8---8---8---8---8---8--- 
- ----------------------------------------------------------------- 
- 
- ---------------------------------------------------8------------- 
- -------------10------------------------------11----------11------ 
- -------------------10------------------10------------------------ 
- -------12----------------12------8------------------------------- 
- -12-------------------------------------------------------------- 
- ----------------------------------------------------------------- 


- ----------------------------------------------------------------- 
- ----------------------------------------------------------------- 
- -5---5---5---5---5---5---5---5---12--12--12--12--12--12--12--12-- 
- -0---0---0---0---0---0---0---0---0---0---0---0---0---0---0---0--- 
- -3---3---3---3---3---3---3---3---10--10--10--10--10--10--10--10-- 
- ----------------------------------------------------------------- 
- 
- ----------------------------------------------------------------- 
- --------------------10------------------------------------------- 
- --------------10----------10-----17(x8)----------16(x8)---------- 
- -------10------------------------0---------------0--------------- 
- -8-------------------------------15--------------14-------------- 
- ----------------------------------------------------------------- 


Riff 11a - 03:09 - 03:13 
- ----------------------------------------------------------------- 
- ----------------------------------------------------------------- 
- -7--------------------------------------------------------------- 
- -0--------------------------------------------------------------- 
- -5--------------------------------------------------------------- 
- ----------------------------------------------------------------- 

Riff 11b - 03:09 - 03:41 
- ----------------------------------------------------------------- 
- -10----------------12------------------------------12------------ 
- -------12----------------12------------12----------------12------ 
- -------------10--------------10--------------12--------------12-- 
- ---------------------------------10------------------------------ 
- ----------------------------------------------------------------- 

- ------------------------------------------------- 
- -------------------12------------12-------------- 
- -------12----------------12------------12-------- 
- -------------10--------------10--------------10-- 
- -8----------------------------------------------- 
- ------------------------------------------------- 

- ----------------------------------------------------------------- 
- -------------------------13-------------------------------------- 
- -----------------14---------------------------------------------- 
- -12------12------------------------------------------------------ 
- -13-------------------------------------------------------------- 
- ----------------------------------------------------------------- 

- ----------------------------------------------------------------- 
- ----------------------------------------------------------------- 
- -12--------------------------10---------------------------------- 
- -15------------------14------------------------------------------ 
- -12----------12-------------------------------------------------- 
- ----------------------------------------------------------------- 

- ----------------------------------------------------------------- 
- ----------------------------------------------------------------- 
- -9---------------9---------------12--------------12-------------- 
- -10------10----------------------12------12---------------------- 
- -8-------------------------------10------------------------------ 
- ----------------------------------------------------------------- 

- ----------------------------------------------------------------- 
- -10-------------------------------------------------------------- 
- -10-------------------------------------------------------------- 
- -0--------------------------------------------------------------- 
- -0--------------------------------------------------------------- 
- -0--------------------------------------------------------------- 

- ----------------------------------------------------------------- 
- -10-------------------------------------------------------------- 
- -10-------------------------------------------------------------- 
- -0--------------------------------------------------------------- 
- -0--------------------------------------------------------------- 
- -0---------------------------------------------------------------  
  

top 5 | texas in july
top rock'n roll
Outras músicas do artista letras do(a) Texas In July
Top cifras »Top artistas »
Petaxxon Comunicação Online
Cifras.com.br - Melhor e mais completo site de cifras e tablaturas do Brasil
Mais de 1 milhão de acordes de músicas cadastradas desde 2003
As informações contidas no nosso site são colaborações de seus usuários e podem conter erros, sendo assim, não nos responsabilizamos sobre nenhuma destas.
close
menos
mais
close
Cor dos acordes:

Cor da letra:

 

save
close
close
 
redimensionar