Cifras e Tablaturas
Texas In July

Texas In July

Satellites

Cifras Cancelar Versão de Impressão
cifras

Texas In July - Satellites

fixar na tela  
Exibindo: vídeo-aula ver clipes redimensionar
  
Tuning: C G C F A D 


Riff 1, Guitar 1 & 2 - 00:00 - 00:25 
- ----------------------------------------------------------------- 
- ----------------------------------------------------------------- 
- -------7-------------------------------7------------------------- 
- -7-----------------8-7---7-------7-----------------8-7---7------- 
- ---8-5---0-5-0-0-5-----0---8-5-0---8-5---0-5-0-0-5-----0---8-5-0- 
- ----------------------------------------------------------------- 
PM         .   ...       .       .         .   ...       . 
- ----------------------------------------------------------------- 
- ----------------------------------------------------------------- 
- ----------------------------------------------------------------- 
- -0-------------------------------3---------------5--------------- 
- -0-------------------------------3---------------5--------------- 
- -0-------------------------------3---------------5--------------- 


- ----------------------------------------------------------------- 
- ----------------------------------------------------------------- 
- -------7-------------------------------7------------------------- 
- -7-----------------8-7---7-------7-----------------8-7---7------- 
- ---8-5---0-5-0-0-5-----0---8-5-0---8-5---0-5-0-0-5-----0---8-5-0- 
- ----------------------------------------------------------------- 
PM         .   ...       .       .         .   ...       . 
- ----------------------------------------------------------------- 
- ----------------------------------------------------------------- 
- ----------------------------------------------------------------- 
- -0-------------------------------3---------------5--------------- 
- -0-------------------------------3---------------5--------------- 
- -0-------------------------------3---------------5--------------- 


- ----------------------------------------------------------------- 
- ----------------------------------------------------------------- 
- -------7-------------------------------7------------------------- 
- -7-----------------8-7---7-------7-----------------8-7---7------- 
- ---8-5---0-5-0-0-5-----0---8-5-0---8-5---0-5-0-0-5-----0---8-5-0- 
- ----------------------------------------------------------------- 
PM         .   ...       .       .         .   ...       . 
- ----------------------------------------------------------------- 
- ----------------------------------------------------------------- 
- ----------------------------------------------------------------- 
- -0-------------------------------3---------------5--------------- 
- -0-------------------------------3---------------5--------------- 
- -0-------------------------------3---------------5--------------- 


- --------------------------------------------------------------------------------- 
- --------------------------------------------------------------------------------- 
- -------7-------------------------------7-------------------------------7--------- 
- -7-----------------8-7---7-------7-----------------8-7-----------7--------------- 
- ---8-5---0-5-0-0-5-----0---8-5-0---8-5---0-5-0-0-5-----0-0---0-0---8-5---3-3-3-5- 
- ---------------------------------------------------------0---0-0----------------- 
PM         .   ...       .       .         .   ...       ......... 
- --------------------------------------------------------------------------------- 
- --------------------------------------------------------------------------------- 
- --------------------------------------------------------------------------------- 
- -0-------------------------------3---------------5------------------------------- 
- -0-------------------------------3---------------5-------0---0-0----------------- 
- -0-------------------------------3---------------5-------0---0-0----------------- 
PM                                                         ....... 


Riff 2, Guitar 1 & 2 - 00:25 - 00:37 - x2 
- ----------------------------------------------------------------- 
- ----------------------------------------------------------------- 
- ----------------------------------------------------------------- 
- ---------------------------------------------------8-7---7------- 
- -0-0-0-0-------000-0-0-------0---0-----000-----000-----5---8-5-0- 
- -0-0-0-0-------000-0-0-------0---0-----000-----000--------------- 
PM .................................................             . 
- ----------------------------------------------------------------- 
- ----------------------------------------------------------------- 
- ----------------------------------------------------------------- 
- ----------------------------------------------------------------- 
- -0-0-0-0-------000-0-0-------0---0-----000-----000---0-0---0-0--- 
- -0-0-0-0-------000-0-0-------0---0-----000-----000---0-0---0-0--- 
PM ............................................................... 


Riff 3, Guitar 1 & 2 - 00:37 - 00:48 - x2 
- ----------------------------------------------------------------- 
- ----------------------------------------------------------------- 
- -------7-------------------------------7------------------------- 
- -7-----------------8-7---7-------7-----------------8-7---7------- 
- ---8-5---0-5-0-0-5-----0---8-5-0---8-5---0-5-0-0-5-----0---8-5-0- 
- ----------------------------------------------------------------- 
PM         .   ...       .       .         .   ...       . 
- ----------------------------------------------------------------- 
- ----------------------------------------------------------------- 
- ----------------------------------------------------------------- 
- ----------------------------------------------------------------- 
- -0-0-0-0-------000-0-0-------0---3-----333-3-33335---5-5---5-5--- 
- -0-0-0-0-------000-0-0-------0---3-----333-3-33335---5-5---5-5--- 
PM ............................................................... 


Riff 4, Guitar 1 & 2 - 00:48 - 00:52 
- -------------------------------------------------- 
- -------------------------------------------------- 
- -------------------------7-------------10-9------- 
- -0---------------0-7-8-0---8-7---0-7-0------0-7-0- 
- -0-----------------------------8------------------ 
- -0------------------------------------------------ 
- 
- -------------------------------------------------- 
- -------------------------------------------------- 
- -------------------------------------------------- 
- -0---------------3---------------5---------------- 
- -0---------------3---------------5---------------- 
- -0---------------3---------------5---------------- 


Riff 5 - 00:52 - 01:01 
- ----------------------------------------------------------------------- 
- ----------------------------------------------------------------------- 
- -10-9---------10-9-----------9-10---10-9---------10-9-----------9-10--- 
- ------0-7-0-0------0-7-0-0-7-------------0-7-0-0------0-7-0-0-7-------- 
- ----------------------------------------------------------------------- 
- ----------------------------------0----------------------------------0- 
PM      .   ...      .   ...        .      .   ...      .   ...        . 

- -------------------------------------------------------------------- 
- ----------------------------------------------------------10-------- 
- ------------------------7/10-9------10-9-------10-9-----9----9-10-0- 
- ---7------------7--------------10-0------0-7-0------0-7------------- 
- -----8-----10-------8----------------------------------------------- 
- -8-----0-0----0---0---0--------------------------------------------- 
PM .     ...    .   .   .                  .   .      . 


Riff 6a, Guitar 1 & 2 - 01:01 - 01:21 
- ----------------------------------------------------------------------- 
- ----------------------------------------------------------------------- 
- -10-9---------10-9-----------9-10---10-9---------10-9-----------9-10--- 
- ------0-7-0-0------0-7-0-0-7-------------0-7-0-0------0-7-0-0-7-------- 
- ----------------------------------------------------------------------- 
- ----------------------------------0----------------------------------0- 
PM      .   ...      .   ...        .      .   ...      .   ...        . 
- ----------------------------------------------------------------------- 
- -10------------------------10-------11------------------------11------- 
- -10------------------------10-------10------------------------10------- 
- -0-------------------------0--------8-------------------------8-------- 
- -0-------------------------0--------8-------------------------8-------- 
- -0-------------------------0--------8-------------------------8-------- 


- ----------------------------------------------------------------------- 
- ----------------------------------------------------------------------- 
- -10-9---------10-9-----------9-10---10-9---------10-9-----------9-10--- 
- ------0-7-0-0------0-7-0-0-7-------------0-7-0-0------0-7-0-0-7-------- 
- ----------------------------------------------------------------------- 
- ----------------------------------0----------------------------------0- 
PM      .   ...      .   ...        .      .   ...      .   ...        . 
- ----------------------------------------------------------------------- 
- -10------------------------10-------11------------------------11------- 
- -10------------------------10-------10------------------------10------- 
- -0-------------------------0--------8-------------------------8-------- 
- -0-------------------------0--------8-------------------------8-------- 
- -0-------------------------0--------8-------------------------8-------- 


- ------------------------------------------------------------------------- 
- ------------------------------------------------------------------------- 
- ---9-10-----9-10-----9-10-----9-10-----10-9-----10-9-----10-9-----10-9--- 
- -7------0-7------0-7------0-7------0-7------0-7------0-7------0-7------0- 
- ------------------------------------------------------------------------- 
- ------------------------------------------------------------------------- 
- 
- ------------------------------------------------------------------------- 
- -10-------------------------10-------11-------------------------11------- 
- -10-------------------------10-------10-------------------------10------- 
- -0--------------------------0--------8--------------------------8-------- 
- -0--------------------------0--------8--------------------------8-------- 
- -0--------------------------0--------8--------------------------8-------- 

- ---------------------------------------------------------------------- 
- ---------------------------------------------------------------------- 
- ---9-10-----9-10-----9-10-----9-10-----10-9-----10-9-----10-9--------- 
- -7------0-7------0-7------0-7------0-7------0-7------0-7------0---7~-- 
- ---------------------------------------------------------------------- 
- ----------------------------------------------------------------8---8- 
PM                                                                . 
- ---------------------------------------------------------------------- 
- -10-------------------------10-------11------------------------------- 
- -10-------------------------10-------10------------------------------- 
- -0--------------------------0--------8----------------------------7~-- 
- -0--------------------------0--------8-------------------------------- 
- -0--------------------------0--------8--------------------------8---8- 
PM                                                                . 


Riff 7 - 01:21 - 01:31 
- ----------------------------------------------------------------- 
- ----------------------------------------------------------------- 
- ----------------------------------------------------------------- 
- -0-----7~------------------------------7~------------7~--5---7--- 
- -0---------0---0-------0-0-0-0---0---------0---0---------5---7--- 
- -0---8---8-0---0-------0-0-0-0---0---8---8-0---0---8---8-5---7--- 
PM     .     ...........................     ......... 

- ------------------------------------------------------------------- 
- ------------------------------------------------------------------- 
- ------------------------------------------------------------------- 
- -0-----7~------------------------------7~------------7~--5---7----- 
- -0---------0---0---0-0-0-0---0-0-0---------0---0---------5---7----- 
- -0---8---8-0---0---0-0-0-0---0-0-0---8---8-0---0---8---8-5---7----- 
PM     .     ...........................     ......... 

Riff 8a - 01:31 - 01:50 - x4 
- ----------------------------------------------------------------- 
- -------------------------------6--------------------------------- 
- -------------------------------7--------------------------------- 
- -----8-7-----------7-----------------7~--7---7-----7~--5---7----- 
- ---------8---5-------8-0-5-8-0-----------x---x---------5---7----- 
- -0-5-------0---0-5-----------------8---8-8---8---8---8-5---7----- 
PM ...       .   ...                 .     ......... 

Riff 8b - 01:31 - 01:40 
- ----------------------------------------------------------------- 
- ----------------------------------------------------------------- 
- ----------------------------------------------------------------- 
- -5-5-5-5-5-5-5-5-5-5-5-5-5-5-5-5-7-7-7-7-7-7-7-7-7-7-7-7-7-7-7-7- 
- -5-5-5-5-5-5-5-5-5-5-5-5-5-5-5-5-7-7-7-7-7-7-7-7-7-7-7-7-7-7-7-7- 
- -5-5-5-5-5-5-5-5-5-5-5-5-5-5-5-5-7-7-7-7-7-7-7-7-7-7-7-7-7-7-7-7- 

- ------------------------------------------------------------------------------------------------- 
- ------------------------------------------------------------------------------------------------- 
- ------------------------------------------------------------------------------------------------- 
- -10-10-10-10-10-10-10-10-10-10-10-10-10-10-10-10-12-12-12-12-12-12-12-12-12-12-12-12-12-12-12-12- 
- -8--8--8--8--8--8--8--8--8--8--8--8--8--8--8--8--10-10-10-10-10-10-10-10-10-10-10-10-10-10-10-10- 
- -8--8--8--8--8--8--8--8--8--8--8--8--8--8--8--8--10-10-10-10-10-10-10-10-10-10-10-10-10-10-10-10- 

Riff 8c - 01:40 - 01:50 
- ----------------------------------------------------------------- 
- ----------------------------------------------------------------- 
- ----------------------------------------------------------------- 
- ---------------------------------------------------------------0- 
- -0-0-0-0-0---0-----------0-0-0-0-------0-0---0-----------0---0-0- 
- -0-0-0-0-0---0-----------0-0-0-0-------0-0---0-----------0---0-0- 
PM ............................................................. 

- ----------------------------------------------------------------- 
- ----------------------------------------------------------------- 
- ----------------------------------------------------------------- 
- ---------------------------------------------------7~--5---7----- 
- ---0-0-0-0---0-----------0-0-0-0-------0-0---0---------5---7----- 
- ---0-0-0-0---0-----------0-0-0-0-------0-0---0---8---8-5---7----- 
PM   ............................................... 

Riff 9 - 01:50 - 01:55 
- -------------------------------------------------------------5-5-5-5-5-5--------- 
- -------------------------------------------------------------5-5-5-5-5-5--------- 
- -11-11-11-11-11-11-11-11-11-11-11-11-11-11-11-11-7-7-7-7-7-7-7-7-7-7-7-7--------- 
- -11-11-11-11-11-11-11-11-11-11-11-11-11-11-11-11-7-7-7-7-7-7-7-7-7-7-7-7-7\--0--- 
- -9--9--9--9--9--9--9--9--9--9--9--9--9--9--9--9--5-5-5-5-5-5-5-5-5-5-5-5-7\--0--- 
- -9--9--9--9--9--9--9--9--9--9--9--9--9--9--9--9--5-5-5-5-5-5-5-5-5-5-5-5-7\--0--- 


Riff 10, Guitar 1 & 2 - 01:55 - 02:16 
- ----------------------------------------------------------------- 
- -7-----------7---7-----------7-----------7-----------7----------- 
- -----6-7-------------6-7---------6-7---------6-7---------6-7----- 
- ---9-----7-9---9---9-----7-9---9-----7-9---9-----7-9---9-----7-9- 
- ----------------------------------------------------------------- 
- ----------------------------------------------------------------- 
- 
- ----------------------------------------------------------------- 
- ----------------------------------------------------------------- 
- ----------------------------------------------------------------- 
- -11--------------11----------------------11---------------------- 
- -9---------------9-----------------------9----------------------- 
- -9---------------9-----------------------9----------------------- 


- ------------------------------------------------------------- 
- ------------------------------------------------------------- 
- -7-------------7-------------9---------------9--------------- 
- ------7-8-----------7-8-----------9-10------------9-10------- 
- ---10-----8-10---10-----8-10---12------10-12---12------10-12- 
- ------------------------------------------------------------- 
- 
- ------------------------------------------------------------- 
- ------------------------------------------------------------- 
- ------------------------------------------------------------- 
- -7---------------------------9------------------------------- 
- -5---------------------------7------------------------------- 
- -5---------------------------7------------------------------- 


- ------------------------------------------------- 
- -7-----------7-----------7-----------7----------- 
- -----6-7---------6-7---------6-7---------6-7----- 
- ---9-----7-9---9-----7-9---9-----7-9---9-----7-9- 
- ------------------------------------------------- 
- ------------------------------------------------- 
- 
- ------------------------------------------------- 
- ------------------------------------------------- 
- ------------------------------------------------- 
- -11----------------------11---------------------- 
- -9-----------------------9----------------------- 
- -9-----------------------9----------------------- 


- ------------------------------------------------------------- 
- ------------------------------------------------------------- 
- -7-------------7-------------9---------------9--------------- 
- ------7-8-----------7-8-----------9-10------------9-10------- 
- ---10-----8-10---10-----8-10---12------10-12---12------10-12- 
- ------------------------------------------------------------- 
- 
- ------------------------------------------------------------- 
- ------------------------------------------------------------- 
- ------------------------------------------------------------- 
- -7---------------------------9------------------------------- 
- -5---------------------------7------------------------------- 
- -5---------------------------7------------------------------- 


- ------------------------------------------------------------------------- 
- ---------------------------------------------------------7-----------7--- 
- -7-------------7-------------7-------------7-----------------6-7--------- 
- ------7-8-----------7-8-----------7-8-----------7-8--------9-----7-9---9- 
- ---10-----8-10---10-----8-10---10-----8-10---10-----8-10----------------- 
- ------------------------------------------------------------------------- 
- 
- ------------------------------------------------------------------------- 
- ------------------------------------------------------------------------- 
- ------------------------------------------------------------------------- 
- -7---------------------------7---------------------------11-------------- 
- -5---------------------------5---------------------------9--------------- 
- -5---------------------------5---------------------------9--------------- 


Riff 11a - 02:16 - 02:35 
- ----------------------------------------------------------------------------- 
- ----8-------------8----8-------------8----8-------------8----8-------------8- 
- -----------8-7----------------8-7----------------8-7----------------8-7------ 
- -10---10-8-----10---10---10-8-----10---10---10-8-----10---10---10-8-----10--- 
- ----------------------------------------------------------------------------- 
- ----------------------------------------------------------------------------- 

- ----------------------------------------------------------------- 
- ---7-----------7---7-----------7---7-----------7---7-----------7- 
- ---------7-6-------------7-6-------------7-6-------------7-6----- 
- -9---9-7-----9---9---9-7-----9---9---9-7-----9---9---9-7-----9--- 
- ----------------------------------------------------------------- 
- ----------------------------------------------------------------- 

- ----------------------------------------------------------------------------- 
- ----8-------------8----8-------------8----8-------------8----8-------------8- 
- -----------8-7----------------8-7----------------8-7----------------8-7------ 
- -10---10-8-----10---10---10-8-----10---10---10-8-----10---10---10-8-----10--- 
- ----------------------------------------------------------------------------- 
- ----------------------------------------------------------------------------- 

- ------------------------------------------------------------------ 
- ---7-----------7---7-----------7---7-----------7---7-------------- 
- ---------7-6-------------7-6-------------7-6------------------9--- 
- -9---9-7-----9---9---9-7-----9---9---9-7-----9---9---9-7----7---7- 
- ---------------------------------------------------------10------- 
- ------------------------------------------------------------------ 

Riff 11b - 02:16 - 02:35 - x2 
- ----------------------------------------------------------------- 
- ----------------------------------------------------------------- 
- ----------------------------------------------------------------- 
- ----------------------------------------------------------------- 
- -1-1-1-1---1---111-1-1---1-1-1-1---1---111-1-1---1-1-1-1-111-1-1- 
- -1-1-1-1---1---111-1-1---1-1-1-1---1---111-1-1---1-1-1-1-111-1-1- 
PM ............................................................... 

- ----------------------------------------------------------------- 
- ----------------------------------------------------------------- 
- ----------------------------------------------------------------- 
- ----------------------------------------------------------------- 
- -0-0-0-0---0---000-0-0---0-0-0-0---0---000-0-0---0-0-0-0-000-0-0- 
- -0-0-0-0---0---000-0-0---0-0-0-0---0---000-0-0---0-0-0-0-000-0-0- 
PM ............................................................... 

Riff 12 - 02:35 - 2:55 - x4 
- ----------------------------------------------------------------- 
- ----------------------------------------------------------------- 
- ----------------------------------------------------------------- 
- ----------------------------------------------------------------- 
- -0-0-0-0-------------------000-0-0---0-0-0-0--------------------- 
- -0-0-0-0-------------------000-0-0---0-0-0-0--------------------- 
PM ............................................................... 


Riff 13, Guitar 1 & 2 - 02:55 - 03:04 
- ----------------------------------------------------------------- 
- ----------------------------------------------------------------- 
- ----------------------------------------------------------------- 
- ----------------------------------------------------------------- 
- -0-0-0---------------------000-0-0-----0-0-0--------------------- 
- -0-0-0---------------------000-0-0-----0-0-0--------------------- 
PM ............................................................... 
- ----------------------------------------------------------------- 
- ----------------------------------------------------------------- 
- ----------------------------------------------------------------- 
- ----------------------------------------------------------------- 
- -0-0-0---------------------000-0-0-----0-0-0--------------------- 
- -0-0-0---------------------000-0-0-----0-0-0--------------------- 
PM ............................................................... 


- ----------------------------------------------------------------- 
- ---------------------------------7------------------------------- 
- -------------------------------------6-------11------------------ 
- -----------------------------------9---0-7/9----9---------------- 
- -0-0-0---------------------000-0------------------0---0-0-------- 
- -0-0-0---------------------000-0------------------0---0-0-------- 
PM ...............................                  ....... 
- ----------------------------------------------------------------- 
- ----------------------------------------------------------------- 
- ----------------------------------------------------------------- 
- ----------------------------------------------------------------- 
- -0-0-0---------------------000-0-0----------------0---0-0-------- 
- -0-0-0---------------------000-0-0----------------0---0-0-------- 
PM ........................................................ 
 
  

top 5 | texas in july
top rock'n roll
Outras músicas do artista letras do(a) Texas In July
Top cifras »Top artistas »
Petaxxon Comunicação Online
Cifras.com.br - Melhor e mais completo site de cifras e tablaturas do Brasil
Mais de 1 milhão de acordes de músicas cadastradas desde 2003
As informações contidas no nosso site são colaborações de seus usuários e podem conter erros, sendo assim, não nos responsabilizamos sobre nenhuma destas.
close
menos
mais
close
Cor dos acordes:

Cor da letra:

 

save
close
close
 
redimensionar