Cifras e Tablaturas
Thank You Scientist

Thank You Scientist

Rube Goldberg Variations

Cifras Cancelar Versão de Impressão
cifras

Thank You Scientist - Rube Goldberg Variations

fixar na tela  
Exibindo: vídeo-aula ver clipes redimensionar

Tom:

  
Intro - With tap harmonics (denoted with '+') 
e|-------2-p0--------0+----------2-p0--------0+----| 
B|---2p0----------0+---------2p0----------0+-------| 
G|-2-----------2+----------2-----------2+----------| 
D|-------------------------------------------------| 
A|-------------------------------------------------| 
E|-------------------------------------------------| 

e|--------------------------------------------| 
B|--------------------------------------------| 
G|-11+-----------------11+--------------------| 
D|-----11+-9+-7+----7+-----11+-9+-7+----7+----| 
A|---------------9+------------------9+-------| 
E|--------------------------------------------| 

e|----------------------------------------| 
B|----------------------------------------| 
G|----------------------------------------| 
D|-9+-7+-6+----------9+-7+-6+-------------| 
A|----------8+----8+----------8+----8+----| 
E|-------------9+----------------9+-------| 

e|----4----4----4----4----4----4----4----4----4----4----4----------| 
B|-2+-------------2+-------------2+-------------2+-----------------| 
G|------2+-------------2+-------------2+-------------2+------2+----| 
D|-----------4+-------------4+-------------4+-------------4+-------| 
A|-----------------------------------------------------------------| 
E|-----------------------------------------------------------------| 

e|--------------------------------------------| 
B|--------------------------------------------| 
G|-11+-----------------11+--------------------| 
D|-----11+-9+-7+----7+-----11+-9+-7+----7+----| 
A|---------------9+------------------9+-------| 
E|--------------------------------------------| 

e|-------------------------| 
B|-------------------------| 
G|-------------------------| 
D|-9+-7+-6+----------6+----| 
A|----------8+----8+-8+----| 
E|-------------9+----------| 

Soft lead 
Rhythm 
e|-0----0----0----0----|-0-----0-----------------| 
B|-0----5----5----0----|-0-----5----8----4--3----| 
G|-3----6----6----2----|-3-----6----7----3--2----| 
D|-4----4----4----1----|-4-----4----5----x--x----| 
A|-4----0----5----2----|-4-----0----7----x--x----| 
E|-2----5--------------|-2-----5---------4--3----| 

Lead 
e|-----------------------------------------------------------------| 
B|-----0-2-----3--2--0-2----------------/7--2----------------------| 
G|---3-------------------4h6p4\3h4p3-2---------5\4-2-5\4-2-4--3----| 
D|-4--------4------------------------------------------------------| 
A|-----------------------------------------------------------------| 
E|-----------------------------------------------------------------| 

e|-------2---------------------------------------------------------| 
B|-----2----2--5--3p2----------------------------------------------| 
G|-3h4----------------4-3--4\3--------------------------5-----2----| 
D|-----------------------------4-4h5--4-2-4-2/4--5p4\2-----6-------| 
A|-----------------------------------------------------------------| 
E|-----------------------------------------------------------------| 

Arpeggios 
e||-------------------------|-------2-----------2-----| 
B||-------0-----------0-----|---2-------2---2-------2-| 
G||---2-------2---2-------2-|-----4---4-------4---4---| 
D||-----4---4-------4---4---|-4-----------4-----------| 
A||-5-----------5-----------|-------------------------| 
E||-------------------------|-------------------------| 

e|-------------------------|-------2-----------2-----||-------2-----------2-----| 
B|-------0-----------0-----|---2-------2---2-------2-||---2-------2---2-------2-| 
G|---2-------2---2-------2-|-----4---4-------4---4---||-----4---4-------4---4---| 
D|-----5---5-------5---5---|-3-----------3-----------||-3-----------3-----------| 
A|-5-----------5-----------|-------------------------||-------------------------| 
E|-------------------------|-------------------------||-------------------------| 

e|---------------------------------------------------------------| 
B|-10p9-------------------------3-3-3-3-3-3-3-3-3-3-3-3-3-3-3----| 
G|------11----9h11-----------------------------------------------| 
D|---------11-------9\7-----6h7----------------------------------| 
A|----------------------9-7--------------------------------------| 
E|---------------------------------------------------------------| 

Soft lead 
e|-0----0----0----0----|-0-----0-----------------| 
B|-0----5----5----0----|-0-----5----8----4--3----| 
G|-3----6----6----2----|-3-----6----7----3--2----| 
D|-4----4----4----1----|-4-----4----5----x--x----| 
A|-4----0----5----2----|-4-----0----7----x--x----| 
E|-2----5--------------|-2-----5---------4--3----| 

Soft lead 2 - This is played again at the end on different positions (live), so you can check those out too. 
e|---------0-------------------------------------------------| 
B|-1-----0----1-----1-3-5--3-1--3----------------------------| 
G|----2----------2-----------------5--4----------------------| 
D|--------------------------------------7-----5/6------------| 
A|-----------------------------------------7-------7\5--3----| 
E|-----------------------------------------------------------| 

e|---------0--------------------------------| 
B|-1-----0----3-----3-5-6--5-3-5------------| 
G|----2----------4-------------------5-7----| 
D|--------------------------------7---------| 
A|------------------------------------------| 
E|------------------------------------------| 

e|--------------------------------------------11-10----------------------| 
B|-3-------6---8---------11---13----------16--------11-------------------| 
G|-----3-5----------8-10------------13-15--------------12----------------| 
D|---5-----------10--------------15-----------------------13-14----14----| 
A|-----------------------------------------------------------------------| 
E|-----------------------------------------------------------------------| 

Syncopated lead 
                                                                x2  1. 
e||----------------------------------------8---------8-------10-8-||----------------------| 
B||----------5----3-5-3----------------7-8-------7-8-----7-8------||----------------------| 
G||----5---4------------5-4--------5-7---------7------------------||--9--10--13--10--9----| 
D||------7------------------5-------------------------------------||----------------------| 
A||---------------------------7-----------------------------------||--7---8--11---8--7----| 
E||---------------------------------------------------------------||----------------------| 

2.                        x3                   x2 
e||-------------------------||-0--0-0--0-0--0--0-||-0-0-0-0--0-0-0--0-0----| 
B||-------------------------||-0--0-0--0-0--0--0-||-0-0-0-0--0-0-0--0-0----| 
G||-9--10--13--10-9--10--13-||-2--2-2--2-2--2--2-||-2-2-2-2--2-2-2--2-2----| 
D||-------------------------||-3--3-3--3-3--3--3-||-3-3-3-3--3-3-3--3-3----| 
A||-7---8--11---8-7---8--11-||-3--3-3--3-3--3--3-||-3-3-3-3--3-3-3--3-3----| 
E||-------------------------||-1--1-1--1-1--1--1-||-1-1-1-1--1-1-1--1-1----| 


Arpeggios 2 w/ sax solo                                        
e||-------------------------|-------2-----------2-----|| 
B||-------0-----------0-----|---2-------2---2-------2-|| 
G||---2-------2---2-------2-|-----4---4-------4---4---|| 
D||-----4---4-------4---4---|-4-----------4-----------|| 
A||-5-----------5-----------|-------------------------|| x3 
E||-------------------------|-------------------------|| 

e|-------------------------|-------2-------| 
B|-------0-----------0-----|---2-------2---| 
G|---2-------2---2-------2-|-----4---4-----| 
D|-----4---4-------4---4---|-4-----------4-| 
A|-5-----------5-----------|---------------| 
E|-------------------------|---------------| 

e||-------------------------|-------2-----------2-----| 
B||-------0-----------0-----|---2-------2---2-------2-| 
G||---2-------2---2-------2-|-----4---4-------4---4---| 
D||-----4---4-------4---4---|-4-----------4-----------| 
A||-5-----------5-----------|-------------------------| 
E||-------------------------|-------------------------| 

e|-------------------------|-------2-----------2-----|| 
B|-------0-----------0-----|---2-------2---2-------2-|| 
G|---2-------2---2-------2-|-----4---4-------4---4---|| 
D|-----5---5-------5---5---|-3-----------3-----------|| 
A|-5-----------5-----------|-------------------------|| 
E|-------------------------|-------------------------|| 

Triads w/ sax solo 
e|----------------------------------|-------------------------------------| 
B|-12-12--14-14-14--12-12--14-14-14-|-11-11--14-14-14--11-11--10-12-10----| 
G|-11-11--11-11-11--11-11--11-11-11-|-11-11--11-11-11--11-11--11-11-11----| 
D|-12-12--11-11-11--12-12--11-11-11-|-12-12--11-11-11--12-12--11-11-11----| 
A|----------------------------------|-------------------------------------| 
E|----------------------------------|-------------------------------------| 

e|----------------------------------|------------------------------------| 
B|-10-10--12-10-10--10-10--12-10-10-|--9--9---9--9--9--10-10--8-10--8----| 
G|--9--9---9--9--9---9--9---9--9--9-|--8--8---8--8--8---9--9--9--9--9----| 
D|-11-11--11-11-11--10-10--10-10-10-|-10-10--10-10-10---9--9--9--9--9----| 
A|----------------------------------|------------------------------------| 
E|----------------------------------|------------------------------------| 

e|-------------------------------|-------------------------------------| 
B|-12-12--15-17-15-17/19--17--15-|-14-14--12-12-12--12-12--12-14-12----| 
G|-11-11--14-14-14-14/16--14--14-|-11-11--11-11-11--11-11--11-11-11----| 
D|-12-12--12-12-12--------12--12-|-12-12--12-12-12--12-12--12-12-12----| 
A|-------------------------------|-------------------------------------| 
E|-------------------------------|-------------------------------------| 

e|----------------------------------|------------------------------------| 
B|-10-12--10-12-10--10-10--10-12-10-|--9--9---9--9--9--10----10----------| 
G|--9--9---9--9--9---9--9---9--9--9-|--8--8---8--8--8--10-------10-------| 
D|-11-11--11-11-11--10-10--10-10-10-|-10-10--10-10-10--11----------11----| 
A|----------------------------------|------------------------------------| 
E|----------------------------------|------------------------------------| 

*Strum* - These are the same chords as the arpeggio sections, but a bit embellished 
e|-2--2--2--2--2--2--2--||-------2-----------2-----|| 
B|-3--2--3--2--3--2--3--||---2-------2---2-------2-|| 
G|-2--4--2--4--2--4--2--||-----4---4-------4---4---|| 
D|-4--4--5--3--4--4--5--||-3-----------3-----------|| 
A|-5-----5-----5-----5--||-------------------------|| 
E|----------------------||-------------------------|| 

*D note count at the end is not exact 
e|-----------------------------------------------------------------------------| 
B|-10p9-------------------------3-3-3-3-3-3-3-3-3-3-3-3-3-3-3-3-3-3-3-3-3-3----| 
G|------11----9h11-------------------------------------------------------------| 
D|---------11-------9\7-----6h7------------------------------------------------| 
A|----------------------9-7----------------------------------------------------| 
E|-----------------------------------------------------------------------------| 

Riff 
e|-----------7----5h7---------------5h7---------------5h7----------7----| 
B|-7----6----5-------5h7---------5h7---5h7---------5h7---5h7-------5----| 
G|-7----6----5----------5h7---5h7---------5h7---5h7---------5h7----5----| 
D|-7----6----5-------------5h7---------------5h7---------------5h7-5----| 
A|----------------------------------------------------------------------| 
E|----------------------------------------------------------------------| 

Riff w/ bass solo 
                                      x7           x4       x4 
e|------------||------------------------||-----------||-------|| 
B|-5-5--6--7--||-5-5--6--7----6----5----||-----------||-------|| 
G|-5-5--6--7--||-5-5--6--7----6----5----||-11------9-||-9h11--|| 
D|-5-5--6--7--||-5-5--6--7----6----5----||----9-11---||-------|| 
A|------------||------------------------||-----------||-------|| 
E|------------||------------------------||-----------||-------|| 

                          x6 
e|-------------||-----------||---------------------------------------------| 
B|-5--5--6--7--||-5-5--6--7-||-5-5--6--7----7-xxx-6----6-xxx-5----5-xxx----| 
G|-5--5--6--7--||-5-5--6--7-||-5-5--6--7----7-xxx-6----6-xxx-5----5-xxx----| 
D|-5--5--6--7--||-5-5--6--7-||-5-5--6--7----7-xxx-6----6-xxx-5----5-xxx----| 
A|-------------||-----------||---------------------------------------------| 
E|-------------||-----------||---------------------------------------------| 

e|-------------------------------------------| 
B|-5-x-5--6--7----7-xxx-6----6-xxx-5----6----| 
G|-5-x-5--6--7----7-xxx-6----6-xxx-5----5----| 
D|-5-x-5--6--7----7-xxx-6----6-xxx-5----4----| 
A|--------------------------------------5----| 
E|-------------------------------------------| 

Bossa nova section w/ bass solo - This is also played behind the bass solo live 
e||------------------------------------------------------------------------| 
B||-----------------------------------7-7--7-7-7--7-7--0-0--0--2-2--2-2----| 
G||-4-4--4-4-4--4-4---7-7--7--6-6--6--6-6--6-6-6--6-6--2-2--2--2-2--2-2----| 
D||-4-4--4-4-4--4-4---7-7--6--6-6--5-------------------1-1--1--1-1--1-1----| 
A||------------------------7-------6--5-5--5-5-5--5-5--2-2--2--2-2--2-2----| 
E||-3-3--3-3-3--3-3---7-7-----6-6------------------------------------------| 

e|-----------------------------------------------------------------------|| 
B|-----------------------------------------------------------6-6--6-6----|| 
G|-4-4--4-4-4--4-4--6-6--6-6-6--6-6--7-7--7-7-7--7-7--5-5--5-5-5--5-5----|| 
D|-4-4--4-4-4--4-4--7-7--7-7-7--7-7--7-7--7-7-7--7-7--5-5--5-------------|| 
A|------------------4-4--4-4-4--4-4--5-5--5-5-5--5-5---------5-5--5-5----|| 
E|-2-2--2-2-2--2-2--5-5--5-5-5--5-5--7-7--7-7-7--7-7--5-5--5-------------|| 

e|----------------------------------------------------| 
B|-3--3-3-3----3--3-3-3----4--4-4-4----4--4-4-4--6----| 
G|-4--4-4-4----4--4-4-4----5--5-5-5----5--5-5-5--5----| 
D|-4--4-4-4----4--4-4-4----5--5-5-5----5--5-5-5--4----| 
A|-----------------------------------------------5----| 
E|-3--3-3-3----3--3-3-3----4--4-4-4----4--4-4-4-------| 

*After little break* 
e|-------------------------------------------------------------------| 
B|-3--3-3-3----3--3-3-3----4--4-4-4----4--4-4-4--6-6--6-6--6-6--6-6--| 
G|-4--4-4-4----4--4-4-4----5--5-5-5----5--5-5-5--5-5--5-5--5-5--5-5--| 
D|-4--4-4-4----4--4-4-4----5--5-5-5----5--5-5-5--4-4--4-4--4-4--4-4--| 
A|-----------------------------------------------5-5--5-5--5-5--5-5--| 
E|-3--3-3-3----3--3-3-3----4--4-4-4----4--4-4-4----------------------| 

Solo lead up - Sadly, pending 
e|---------------------------------------------------------------------------| 
B|---------------------------------------------------------------------------| 
G|---------------------------------------------------------------------------| 
D|---------------------------------------------------------------------------| 
A|---------------------------------------------------------------------------| 
E|---------------------------------------------------------------------------| 

Guitar solo - Sadly, pending (except for the last notes) 
e|-------------------------------------------------------------------------18-15\-| 
B|-------------------------------------------------------------------18-18--------| 
G|--------------------------------------------------------------------------------| 
D|--------------------------------------------------------------------------------| 
A|--------------------------------------------------------------------------------| 
E|--------------------------------------------------------------------------------| 

Guitar, sax and trumpet unison 
e|----------15-----------------13--------12--------------------------| 
B|-13-14-15----15-14-13--11-13-----10-11-----17-13----15-------------| 
G|-------------------------------------------------15----15----------| 
D|----------------------------------------------------------17-15----| 
A|-------------------------------------------------------------------| 
E|-------------------------------------------------------------------| 

e|-----15-------------------------------------------------| 
B|-/15-----------------------------------10~----11--11----| 
G|--------17-15--14-15-------14\10------------------------| 
D|---------------------15----------12-10------------------| 
A|------------------------17------------------------------| 
E|--------------------------------------------------------| 

                                  1. 
e||-18-16-----------18-16-------||-18-16-------------------------------| 
B||-------14~-------------14~---||-------14~-----14-16-18-16-14--------| 
G||-----------15-15-------------||------------15-----------------15-15-| 
D||-----------------------------||-------------------------------------| 
A||-----------------------------||-------------------------------------| 
E||-----------------------------||-------------------------------------| 

2. 
e|-------16-14-------13-------------------------13-15\----| 
B|-13-13-------15-16----13-------------13-14-15-----------| 
G|-------------------------13----12-15--------------------| 
D|----------------------------15--------------------------| 
A|--------------------------------------------------------| 
E|--------------------------------------------------------| 

e|-------------------------------------------------------------------------| 
B|--------------------------------------------------------------------3----| 
G|-4--4-4-4--4--4-4-4--4--4-4-4--7-7--5-5--5--5-5-5--5-5--------------4----| 
D|-5--5-5-5--5--5-5-5--5--5-5-5--8-8--6-6--6--6-6-6--6-6--------------x----| 
A|-5--5-5-5--5--5-5-5--5--5-5-5--8-8--6-6--6--6-6-6--6-6--4-----4--5--4----| 
E|-3--3-3-3--3--3-3-3--3--3-3-3--6-6--4-4--4--4-4-4--4-4-----5-------------| 

Violin break 
e|----------------------------| 
B|----------------4-4--3-3----| 
G|----------------3-3--2-2----| 
D|----------------x-x--x-x----| 
A|----------------x-x--x-x----| 
E|----------------4-4--3-3----| 

Heavy riff 
e|--------------------------------------------------------------------------------------| 
B|--------------------------------------------------------------------------------------| 
G|--------------------------6---6/11-----------------------------------------------8----| 
D|------------------------4---4-------9\7---7\6----7-7-------7-7----------7---9---------| 
A|-------4--------1-----------------------9-----7--5-5--5h7--5-5----6-7-9---9---9-------| 
E|-2-0-2----2-0-2----2--5-----------------------------------------7---------------------| 

e|-------------------------------------------------------------------------| 
B|--------------------------------10-9-------------------------------------| 
G|--------------------------6/11-------9-----------------------------------| 
D|------------------------4--------------11-9------------------------------| 
A|-------4--------1---------------------------11-9----9----10\--2-2-10\----| 
E|-2-0-2----2-0-2----2--7--------------------------12---0-------0-0--------| 

e|-----------------------------------| 
B|-4-4--3-3--4-4--3-3--16-16--15-15--| 
G|-3-3--2-2--3-3--2-2--15-15--14-14--| 
D|-x-x--x-x--x-x--x-x---x--x---x--x--| 
A|-x-x--x-x--x-x--x-x---x--x---x--x--| 
E|-4-4--3-3--4-4--3-3--16-16--15-15--| 

Lead with choir 
e|--------------------------|------------------------------------| 
B|---------5--------------5-|----------5-------------------------| 
G|-5-----4----5-----5---4---|-5-----4-----5-----10-9-------------| 
D|----7----------7----7-----|----7-----------7-------10-7-9-9----| 
A|--------------------------|------------------------------------| 
E|--------------------------|------------------------------------| 

e|-----------------------------------------------------------| 
B|---------5-------------------------------------------------| 
G|-5-----4----5-----5-7-9--7-5--7--5--4----------------------| 
D|----7----------7----------------------7-----5/6------------| 
A|-----------------------------------------7-------7\5--3----| 
E|-----------------------------------------------------------| 

e|------------------------------------------| 
B|---------5----------5-6--5---5------------| 
G|-5-----4----7--4--7--------7-------5-7----| 
D|----7---------------------------7---------| 
A|------------------------------------------| 
E|------------------------------------------| 

                              x3 
e||-----------------------------||-11-10----------------------| 
B||-3-------6---8---------11----||-------11-------------------| 
G||-----3-5----------8-10-------||----------12----------------| 
D||---5-----------10------------||-------------13-14----14----| 
A||-----------------------------||----------------------------| 
E||-----------------------------||----------------------------| 

************************************ 

| /   slide up 
| \   slide down 
| h   hammer-on 
| p   pull-off 
| ~   vibrato 
| +   harmonic 
| x   Mute note 

************************************ 
  

top 5 | thank you scientist
top rock'n roll
Outras músicas do artista letras do(a) Thank You Scientist
Top cifras »Top artistas »
Petaxxon Comunicação Online
Cifras.com.br - Melhor e mais completo site de cifras e tablaturas do Brasil
Mais de 1 milhão de acordes de músicas cadastradas desde 2003
As informações contidas no nosso site são colaborações de seus usuários e podem conter erros, sendo assim, não nos responsabilizamos sobre nenhuma destas.
close
menos
mais
close
Cor dos acordes:

Cor da letra:

 

save
close
close
 
redimensionar