Cifras e Tablaturas
The Angry Brians

The Angry Brians

21st Century Irish Man

Cifras Cancelar Versão de Impressão
cifras

The Angry Brians - 21st Century Irish Man

fixar na tela  
Exibindo: vídeo-aula ver clipes redimensionar
  
     Bb   Ab   Eb   F 

eb|-------------------------------| 
Bb|-------------------------------| 
Gb|--4----2-----------------------| 
Db|--4----2----2----4-------------| 
Ab|--2----0----2----4-------------| 
Eb|------------0----2-------------| 


Intro part 1 
eb|-14-16--16-17-16-14-------14--------14-14-16--16-17-16-14-19-16--17h16h14-| 
Bb|--------------------17-17-------------------------------------------------| 
Gb|-----------------------------16-16----------------------------------------| 
Db|--------------------------------------------------------------------------| 
Ab|--------------------------------------------------------------------------| 
Eb|--------------------------------------------------------------------------| 

eb|----14-14-16--16-17-16-14-------14------------------------------------------| 
Bb|-17-----------------------15-15--------------14-16-17-16-14-----------14----| 
Gb|---------------------------------16-16--16------------------16-14--16----16-| 
Db|----------------------------------------------------------------------------| 
Ab|----------------------------------------------------------------------------| 
Eb|----------------------------------------------------------------------------| 
Intro part 2 
   Bb               Ab 
eb|-------------------------------------------| 
Bb|-------------------------------------------| 
Gb|-11--11--9-8------9-8---9-8---9-8-9-11-8---| 
Db|-------------9-9------9-----9--------------| 
Ab|-------------------------------------------| 
Eb|-------------------------------------------| 
   Eb               Bb                Ab 
eb|-------------------------------------------| 
Bb|-------------------------------------------| 
Gb|-11--11--9-8------9-8---9-8---9-8-9-11-8---| 
Db|-------------9-9------9-----9--------------| 
Ab|-------------------------------------------| 
Eb|-------------------------------------------| 

verse 1 
      Bb 
I’m a 21st centry Irish man 
Ab                            Eb 
Livin’ my life the best I can 
                                 Bb     Ab 
But the world never cared when I tried 
Bb 
Life gets hard when the road’s so long 
          Ab                            Eb 
Still the 21st century has got me wrong 
                                   Bb 
From the bottom of the bottle I’ve cried 
               Ab 
They said “you ain’t no son of mine” 

Intro part 2 
   Bb               Ab 
eb|-------------------------------------------| 
Bb|-------------------------------------------| 
Gb|-11--11--9-8------9-8---9-8---9-8-9-11-8---| 
Db|-------------9-9------9-----9--------------| 
Ab|-------------------------------------------| 
Eb|-------------------------------------------| 
   Eb               Bb                Ab 
eb|-------------------------------------------| 
Bb|-------------------------------------------| 
Gb|-11--11--9-8------9-8---9-8---9-8-9-11-8---| 
Db|-------------9-9------9-----9--------------| 
Ab|-------------------------------------------| 
Eb|-------------------------------------------| 

Chorus 
                                   Bb   F   Eb 
‘cause you don’t give a damn if we die 
                        Bb   F   Eb 
We drink another to get by 
                                   Bb   F   Eb 
Calling down like thunder from the sky 
                                       Bb   F   Eb 
We’re gonna swing and let the last one fly 

Intro part 2 


              Eb         Bb       Ab            Bb 
eb|-----------------------------------------------------| 
Bb|-------------------------------9-10--9-10p9----------| 
Gb|-11--------13-11-9----11----11---------------9-11----| 
Db|-----------------------------------------------------| 
Ab|-----------------------------------------------------| 
Eb|-----------------------------------------------------| 
                      F      Bb                    Ab 
eb|-------------------------------------------------------| 
Bb|----9-10-9-10p9-------------------------9--9-10-9------| 
Gb|-11--------------9-8--------8-9-11---11-----------11---| 
Db|---------------------9----9----------------------------| 
Ab|-------------------------------------------------------| 
Eb|-------------------------------------------------------| 
            Bb                         Ab 
eb|---------19-17—19h17-16-14-12----------19-21-17-19-16-17-16-14-11--| 
Bb|-9-12-------------------------12-----------------------------------| 
Gb|---------------------------------11--------------------------------| 
Db|-------------------------------------------------------------------| 
Ab|-------------------------------------------------------------------| 
Eb|-------------------------------------------------------------------| 
    Bb 
eb|-19-17-16\14-12-11---------| 
Bb|-------------------12------| 
Gb|----------------------11---| 
Db|---------------------------| 
Ab|---------------------------| 
Eb|---------------------------| 



Outro 
         Bb 
From the frigid night to the hottest days 
(I’m a 21st century Irish man) 
I have bled for the floors where my children lay 
(I’m a 21st century Irish man) 
Beat down in the streets for being who I am 
(I’m a 21st century Irish man) 
I’m an Irish bastard, I don’t give a damn 
              Eb    Bb 
(21st century Irish man) 




And for all of those too lazy to tune your guitar here’s the tab on Standard Tuning… 

Play these power chords in the song 
    Bb   Ab   Eb   F 
e|-------------------------------| 
B|-------------------------------| 
G|------------8----10------------| 
D|--8---6-----8----10------------| 
A|--8---6-----6----8-------------| 
E|--6---4------------------------| 


Intro part 1 
e|-13-15--15-16-15-13-------13--------13-13-15--15-16-15-13-18-15--16h15h13-| 
B|--------------------16-16-------------------------------------------------| 
G|-----------------------------15-15----------------------------------------| 
D|--------------------------------------------------------------------------| 
A|--------------------------------------------------------------------------| 
E|--------------------------------------------------------------------------| 

e|----13-13-15--15-16-15-13-------13-------------------------------------------| 
B|-16-----------------------16-16--------------13-15-16-15-13------------13----| 
G|----------------------------------15-15--15------------------15-13--15----15-| 
D|-----------------------------------------------------------------------------| 
A|-----------------------------------------------------------------------------| 
E|-----------------------------------------------------------------------------| 
Intro part 2 
  Bb               Ab 
e|-------------------------------------------| 
B|-------------------------------------------| 
G|-10--10--8-7------8-7---8-7---8-7-8-10-7---| 
D|-------------8-8------8-----8--------------| 
A|-------------------------------------------| 
E|-------------------------------------------| 
  Eb               Bb                Ab 
e|-------------------------------------------| 
B|-------------------------------------------| 
G|-10--10--8-7------8-7---8-7---8-7-8-10-7---| 
D|-------------8-8------8-----8--------------| 
A|-------------------------------------------| 
E|-------------------------------------------| 

Violin Solo 
             Eb         Bb       Ab            Bb 
e|-----------------------------------------------------| 
B|-------------------------------8-11--8-11p8----------| 
G|-10--------12-10-8----10----10---------------8-10----| 
D|-----------------------------------------------------| 
A|-----------------------------------------------------| 
E|-----------------------------------------------------| 
                     F      Bb                    Ab 
e|-------------------------------------------------------| 
B|----8-11-8-11p8-------------------------8--8-11-8------| 
G|-10--------------8-7--------7-8-10---10-----------10---| 
D|---------------------8----8----------------------------| 
A|-------------------------------------------------------| 
E|-------------------------------------------------------| 
           Bb                         Ab 
e|---------18-16—18h16-15-13-11----------18-20-16-18-15-16-15-13-10--| 
B|-8-11-------------------------11-----------------------------------| 
G|---------------------------------10--------------------------------| 
D|-------------------------------------------------------------------| 
A|-------------------------------------------------------------------| 
E|-------------------------------------------------------------------| 
   Bb 
e|-18-16-15\13-11-10---------| 
B|-------------------11------| 
G|----------------------10---| 
D|---------------------------| 
A|---------------------------| 
E|---------------------------| 



************************************ 

| b  Bend 
| h  Hammer-on 
| p  Pull-off 
| \  Slide down 

************************************ 
  

cifra enviadasem correções
enviado porenviada por:fernsantana
top 5 | the angry brians
top rock'n roll
Outras músicas do artista letras do(a) The Angry Brians
Top cifras »Top artistas »
Petaxxon Comunicação Online
Cifras.com.br - Melhor e mais completo site de cifras e tablaturas do Brasil
Mais de 1 milhão de acordes de músicas cadastradas desde 2003
As informações contidas no nosso site são colaborações de seus usuários e podem conter erros, sendo assim, não nos responsabilizamos sobre nenhuma destas.
close
menos
mais
close
Cor dos acordes:

Cor da letra:

 

save
close
close
 
redimensionar