Cifras e Tablaturas
The Beach Boys

The Beach Boys

Take A Load Off Your Feet

Cifras Cancelar Versão de Impressão

The Beach Boys - Take A Load Off Your Feet

Tom:

  			
Tuning: 1/4 step up. 

G|----------------------------------------------------------------| 
D|----------------0---1---------------------------0---1-----------| 
A|1-----------3-------------------1-------1---3-------------------| 
E|----------------------------------------------------------------| 

G|----------------------------------------------------------------| 
D|----------------0---1---------------------------0---1-----------| 
A|1-----------3-------------------1-----------3-------------------| 
E|----------------------------------------------------------------| 

G|----------------------------------------------------------------| 
D|----------------0---1---------------------------0---1-----------| 
A|1-------1---3-------------------1-----------3-------------------| 
E|----------------------------------------------------------------| 

G|------------------------------------------------3---------------| 
D|----------------3-----------------------------------------------| 
A|1-----------1-------------------1-------------------------------| 
E|----------------------------------------------------------------| 

0:20 

G|----------------------------------------------------------------| 
D|----------------0---1---------------------------0---1-----------| 
A|1-----------3-------------------1-------1---3-------------------| 
E|----------------------------------------------------------------| 

G|----------------------------------------------------------------| 
D|----------------0---1-----------------------0---1---------------| 
A|1-------1---3-------------------1-------------------------------| 
E|----------------------------------------------------------------| 

G|----------------------------------------------------------------| 
D|----------------0---1---------------------------0---1-----------| 
A|1-----------3-------------------1-----------3-------------------| 
E|----------------------------------------------------------------| 

G|----------------------------------------------------------------| 
D|3-------3-------3---3-------3-----------------------------------| 
A|----------------------------------------------------------------| 
E|----------------------------------------------------------------| 

0:38 

G|----------------------------------------------------3-----------| 
D|1---------------3-------------------------------3---------------| 
A|--------------------------------1-------------------------------| 
E|----------------------------------------------------------------| 

G|--------------------------------------------------------3-------| 
D|1-----------1---3-----------------------------------3-----------| 
A|----------------------------1---1-------------------------------| 
E|----------------------------------------------------------------| 

G|----------------------------------------------------------------| 
D|1---------------0---5-------------------------------------------| 
A|--------------------------------3---------------3---------------| 
E|----------------------------------------------------------------| 

G|----------------------------------------------------------------| 
D|----------------------------------------------------------------| 
A|----------------------------------------------------------------| 
E|1---------------------------------------------------------------| 

0:57 

G|----------------------------------------------------------------| 
D|----------------0---1---------------------------0---1-----------| 
A|1-----------3-------------------1-------------------------------| 
E|----------------------------------------------------------------| 

G|----------------------------------------------------------------| 
D|----------------0---1---------------------------0---1-----------| 
A|1-------1---3-------------------1-----------3-------------------| 
E|----------------------------------------------------------------| 

G|----------------------------------------------------------------| 
D|----------------0---1---------------------------0---1-----------| 
A|1-----------3-------------------1-------1---3-------------------| 
E|----------------------------------------------------------------| 

G|----------------------------------------------------------------| 
D|------------5---3-----------------------------------------------| 
A|1-------------------------------1-----------1-------------------| 
E|----------------------------------------------------------------| 

1:15 

G|----------------------------------------------------------------| 
D|--------------------------------12----------12--12--------------| 
A|10----------10--10----------------------------------------------| 
E|----------------------------------------------------------------| 

G|------------12--12h14--12------------------------------------------| 
D|-----------------------------------12----------12--12--------------| 
A|10-----------------------------------------------------------------| 
E|-------------------------------------------------------------------| 

G|----------------------------------------------------------------| 
D|--------------------------------12----------12--12--------------| 
A|10----------10--10----------------------------------------------| 
E|----------------------------------------------------------------| 

G|----------------------------------------------------------------| 
D|10------10------10------10--------------------------------------| 
A|----------------------------------------------------------------| 
E|----------------------------------------------------------------| 

1:34 

G|----------------------------------------------------------------| 
D|----------------1-------------------------------0---1-----------| 
A|1-------------------------------1-----------3-------------------| 
E|----------------------------------------------------------------| 

G|----------------------------------------------------------------| 
D|----------------0---1---------------------------0---1-----------| 
A|1-----------3-------------------1-------1---3-------------------| 
E|----------------------------------------------------------------| 

G|----------------------------------------------------------------| 
D|----------------0---1---------------------------0---1-----------| 
A|1-----------3-------------------1-----------3-------------------| 
E|----------------------------------------------------------------| 

G|----------------------------------------------------------------| 
D|------------5---3-------0---------------------------------------| 
A|1---------------------------3---1-----------1-------1-----------| 
E|----------------------------------------------------------------| 

1:52 

G|----------------------------------------------------3-----------| 
D|1---------------3-------------------------------3---------------| 
A|--------------------------------1-------------------------------| 
E|----------------------------------------------------------------| 

G|--------------------------------------------------------3-------| 
D|1-----------1---3-----------------------------------3-----------| 
A|----------------------------1---1-------------------------------| 
E|----------------------------------------------------------------| 

G|----------------------------------------------------------------| 
D|1---------------0-----------------------------------------------| 
A|--------------------------------3---------------3---------------| 
E|----------------------------------------------------------------| 

G|----------------------------------------------------------------| 
D|----------------------------------------------------------------| 
A|----------------------------------------------------------------| 
E|1---------------1---------------1---------------1---------/-----| 

2:11 

G|----------------------------------------------------------------| 
D|----------------1-------------------------------0---1-----------| 
A|1-------------------------------1-----------3-------------------| 
E|----------------------------------------------------------------| 

G|----------------------------------------------------------------| 
D|----------------0---1-----------------------0---1---------------| 
A|1-----------3-------------------1-------------------------------| 
E|----------------------------------------------------------------| 

G|----------------------------------------------------------------| 
D|----------------0---1---------------------------0---1-----------| 
A|1-----------3-------------------1-----------3-------------------| 
E|----------------------------------------------------------------| 

G|------------------------------------| 
D|------------5---3-------0-----------| fades out here. 
A|1---------------------------3---1---| 
E|------------------------------------| 
    	
fixar
fixar inscrever-se

enviado porenviado por: IronPower4Ever
cifra enviadaCorrigida por: sem correções
logo top cifrasComente
ico música do artistaMúsicas deste artista
ico curtiuCurtiu?
ico destaqueDestaque
Petaxxon Comunicação Online

Cifras.com.br - Melhor e mais completo site de cifras e tablaturas do Brasil Mais de 1 milhão de acordes de músicas cadastradas desde 2003
As informações contidas no nosso site são colaborações de seus usuários e podem conter erros, sendo assim, não nos responsabilizamos sobre nenhuma destas.

close
menos
mais
close
Cor dos acordes:

Cor da letra:

close
Alinhar acordes a direita Alinhar acordes a esquerda Alinhar acordes em baixo Alinhar acordes no topo
close
  Mostrar todos os acordes Esconder acordes muito fáceis Esconder acordes fáceis Esconder acordes intermediários
redimensionar
glossário