Cifras e Tablaturas
The Bear Quartet

The Bear Quartet

A Man Walks Into A Bar

Cifras Cancelar Versão de Impressão
cifras

The Bear Quartet - A Man Walks Into A Bar

fixar na tela  
Exibindo: vídeo-aula ver clipes redimensionar
  
Main theme 

            C               G          Am           F 
e|--------|---------------|--------8-|---10-8-7-8-|-12--10-8---8-7----7--| 
B|------8-|---10-8------8-|---8-10---|------------|----------------10----| 
G|-9-10---|--------9-10---|----------|------------|----------------------| 
D|--------|---------------|----------|------------|----------------------| 
A|--------|---------------|----------|------------|----------------------| 
E|--------|---------------|----------|------------|----------------------| 

     C                   G          Am           F 
e|--------------------|--------8-|---10-8-7-8-|-12--10-8---8-7----7---| 
B|o-8-----10-8------8-|---8-10---|------------|----------------10----o| 
G|----9--------9-10---|----------|------------|-----------------------| 
D|--------------------|----------|------------|-----------------------| x2 
A|o-------------------|----------|------------|----------------------o| 
E|--------------------|----------|------------|-----------------------| 
  

cifra enviadasem correções
enviado porenviada por:adalgomes
top 5 | the bear quartet
top rock'n roll
Outras músicas do artista letras do(a) The Bear Quartet
Top cifras »Top artistas »
Petaxxon Comunicação Online
Cifras.com.br - Melhor e mais completo site de cifras e tablaturas do Brasil
Mais de 1 milhão de acordes de músicas cadastradas desde 2003
As informações contidas no nosso site são colaborações de seus usuários e podem conter erros, sendo assim, não nos responsabilizamos sobre nenhuma destas.
close
menos
mais
close
Cor dos acordes:

Cor da letra:

 

save
close
close
 
redimensionar