Cifras e Tablaturas
The Black Angels

The Black Angels

Better Off Alone

Cifras Cancelar Versão de Impressão
cifras

The Black Angels - Better Off Alone

fixar na tela  
Exibindo: vídeo-aula ver clipes redimensionar
  
Intro 
e|------------------------------------------------------| 
B|------------------------------------------------------| 
G|----------------------------3-------------------------| 
D|-(5)-(5)--(5)-(5)--(5)-(5)----5-(5)--(5)-(5)--(5)-(5)-| 
A|------------------------------------------------------| 
E|------------------------------------------------------| 

e|------------------------------------------------------| 
B|------------------------------------------------------| 
G|---------------------------------3------------3-------| 
D|-----3--5-(5)--(5)-(5)--(5)-(5)----5-(5)--(5)---5-(5)-| 
A|-3-5--------------------------------------------------| 
E|------------------------------------------------------| 

e|-----------------------------------------------------------| 
B|-----------------------------------------------------------| 
G|---------------------------------3-------------------------| 
D|-----3--5-(5)--(5)-(5)--(5)-(5)----5-(5)--(5)-(5)--(5)-(5)-| 
A|-3-5-------------------------------------------------------| 
E|-----------------------------------------------------------| 

e|-------------------------------------------------------------| 
B|-------------------------------------------------------------| 
G|---------------------------------3-5b6r5--5b7-7r5--5-5/7-5-3-| 
D|-----3--5-(5)--(5)-(5)--(5)-3/5------------------------------| 
A|-3-5---------------------------------------------------------| 
E|-------------------------------------------------------------| 

Verse 
e|-----------------------------------------------| 
B|-----------------------------------------------| 
G|---------------------3---3---------------------| 
D|-5-(5)--(5)-(5)--(5)---5---5-(5)--(5)-(5)--(5)-| 
A|-----------------------------------------------| 
E|-----------------------------------------------| 

e|-----------------------------------------------------| 
B|-----------------------------------------------------| 
G|---------3-------------3------------3--------3-------| 
D|-----3-5---5--(5)-(5)----5-3h5--(5)---5--(5)---5-3h5-| 
A|-3-5-------------------------------------------------| 
E|-----------------------------------------------------| 

e|-------------------------------------------------| 
B|-------------------------------------------------| 
G|-----------------------3-------------------------| 
D|-(5)-(5)--(5)-(5)--(5)---5-(5)--(5)-(5)--(5)-(5)-| 
A|-------------------------------------------------| 
E|-------------------------------------------------| 

e|----------------------------------------------------------------| 
B|----------------------------------------------------------------| 
G|----------------------------3-----------------------------------| 
D|-----3--5-(5)--(5)-(5)--(5)----5-(5)--(5)-(5)--(5)-(5)--(5)-(5)-| 
A|-3-5------------------------------------------------------------| 
E|----------------------------------------------------------------| 

Pre-Hook 
e|----------------------------| 
B|----------------------------| 
G|-/7-7~-7~-7~-7~--7-6-6b7r6~-| 
D|----------------------------| 
A|----------------------------| 
E|----------------------------| 

Solo 
e|---------------------6------------------6------------------6--------| 
B|-6--8-8--8-8--8-8-8----8-8--8-8--8-8-8----8-8--8-8--8-8-8----8-8--8-| 
G|--------------------------------------------------------------------| 
D|--------------------------------------------------------------------| 
A|--------------------------------------------------------------------| 
E|--------------------------------------------------------------------| 

Bridge 
e|-----------------------------------------------------------| 
B|-----------------------------------------------------------| 
G|---------------------------------3-------------------------| 
D|-----3--5-(5)--(5)-(5)--(5)-(5)----5-(5)--(5)-(5)--(5)-(5)-| 
A|-3-5-------------------------------------------------------| 
E|-----------------------------------------------------------| 

e|-----------------------------------------------------------------| 
B|-----------------------------------------------------------------| 
G|---------------------------------3-5--6b7-5---6b7-5---6b7-5-5--3-| 
D|-----3--5-(5)--(5)-(5)--(5)--3/5---------------------------------| 
A|-3-5-------------------------------------------------------------| 
E|-----------------------------------------------------------------| 

Verse 
e|----------------------------------------------------| 
B|----------------------------------------------------| 
G|--------------------------3-------------------------| 
D|-5-(5)--(5)-(5)--(5)-(5)----5-(5)--(5)-(5)--(5)-(5)-| 
A|----------------------------------------------------| 
E|----------------------------------------------------| 

e|------------------------------------------------------------------------------------------| 
B|------------------------------------------------------------------------------------------| 
G|----------------------3--------3-5-3--------------3------------3--------------------------| 
D|-----3-5-3-5-(5)--(5)----5-(5)-------5-(5)--5-3-5---5-(5)--(5)----5-(5)--(5)-(5)--(5)-(5)-| 
A|-3-5--------------------------------------------------------------------------------------| 
E|------------------------------------------------------------------------------------------| 

e|----------------------------------------------------------------| 
B|----------------------------------------------------------------| 
G|-----------------------3----------------------------------------| 
D|---------3--5-(5)--(5)----5-(5)--(5)-(5)--(5)-(5)--(5)-(5)--(5)-| 
A|-3-5-3-5--------------------------------------------------------| 
E|----------------------------------------------------------------| 

Pre-Hook 
e|-----------------------------------| 
B|-----------------------------------| 
G|-/7-7~-7~-7~-7~--7-6-7-/7-7~-7~-7~-| 
D|-----------------------------------| 
A|-----------------------------------| 
E|-----------------------------------| 

Solo 
e|----------------------6--------6-------------6-----------------6---6----------------| 
B|-6--8-8--(8)-(8)--(8)----8-(8)----8-(8)--6-8---8-(8)--(8)-(8)----8---8-(8)--(8)-(8)-| 
G|------------------------------------------------------------------------------------| 
D|------------------------------------------------------------------------------------| 
A|------------------------------------------------------------------------------------| 
E|------------------------------------------------------------------------------------| 

Bridge 
e|-------------------------------------------------------| 
B|-------------------------------------------------------| 
G|----------------------------3--------------------------| 
D|-----3--5-(5)--(5)-(5)--(5)----5-(5)--(5)-(5)--(5)-(5)-| 
A|-3-5---------------------------------------------------| 
E|-------------------------------------------------------| 

e|----------------------------------------| 
B|----------------------------------------| 
G|----------------------3--------3--------| 
D|-----3-5-3-5-(5)--(5)----5-(5)----5-(5)-| 
A|-3-5------------------------------------| 
E|----------------------------------------| 
  
e|-------------------------------------------------------| 
B|-------------------------------------------------------| 
G|----------------------------3--------------------------| 
D|-----3--5-(5)--(5)-(5)--(5)----5-(5)--(5)-(5)--(5)-(5)-| 
A|-3-5---------------------------------------------------| 
E|-------------------------------------------------------| 

e|--------------------------------------------------------|  
B|--------------------------------------------------------|  
G|-------------------------3-5--5/7b-6--7b-6--7b-6--7p6-3-|  
D|--------3-5-(5)--(5)-3/5--------------------------------|  
A|-3-5--5-------------------------------------------------|  
E|--------------------------------------------------------|  

e|----------------------------------------------------------------------------------| 
B|----------------------------------------------------------------------------------| 
G|--------------3---3-----------3------------3-----------------3--------------3-----| 
D|-5-(5)--5-(5)---5---5-(5)-3-5---5-(5)----5---5-(5)--(5)-(5)----5-3-------3----5-3-| 
A|-------------------------------------------------------------------5p3-5----------| 
E|----------------------------------------------------------------------------------| 

Verse 
e|----------------------------------------------------------| 
B|----------------------------------------------------------| 
G|--------------------------------3-------------------------| 
D|-(5)-(5)--(5)-(5)--(5)-(5)--(5)---5-(5)--(5)-(5)--(5)-(5)-| 
A|----------------------------------------------------------| 
E|----------------------------------------------------------| 

e|-------------------------------------------------------| 
B|-------------------------------------------------------| 
G|----------------------------3--------------------------| 
D|-----3--5-(5)--(5)-(5)--(5)----5-(5)--(5)-(5)--(5)-(5)-| 
A|-3-5---------------------------------------------------| 
E|-------------------------------------------------------| 

e|---------------------------------------| 
B|---------------------------------------| 
G|----------------------3-------3--------| 
D|---------3-5-(5)--(5)----5-(5)---5-(5)-| 
A|-3-5-3-5-------------------------------| 
E|---------------------------------------| 

e|---------------------------------------------------------------------| 
B|---------------------------------------------------------------------| 
G|----------------------------3----------------------------------------| 
D|-----3--5-(5)--(5)-(5)--(5)----5-(5)--(5)-(5)--(5)-(5)--(5)-(5)--(5)-| 
A|-3-5-----------------------------------------------------------------| 
E|---------------------------------------------------------------------| 

Pre-Hook 
e|-----------------------------| 
B|-----------------------------| 
G|-/7-7~-7~-7~-7~--/7-6-/6-6~--| 
D|-----------------------------| 
A|-----------------------------| 
E|-----------------------------| 

Outro 
   G     (----x4----) 
e|-3--3---3--3-3--3--| 
B|-3--3---3--3-3--3--| 
G|-4--4---4--4-4--4--| 
D|-5--5---5--5-5--5--|  
A|-5--5---5--5-5--5--| 
E|-3--3---3--3-3--3--|  

e|-3--3--3-3-3---3-3-3-3--| 
B|-3--3--3-3-3---3-3-3-3--| 
G|-4--4--4-4-4---4-4-4-4--| 
D|-5--5--5-5-5---5-5-5-5--| 
A|-5--5--5-5-5---5-5-5-5--| 
E|-3--3--3-3-3---3-3-3-3--| 

e|-3--3-3--3---3-3-3--3-3-3-3--| 
B|-5--5-5--5---5-5-5--5-5-5-5--| 
G|-5--5-5--5---5-5-5--5-5-5-5--| 
D|-4--4-4--4---4-4-4--4-4-4-4--| 
A|-3--3-3--3---3-3-3--3-3-3-3--| 
E|-3--3-3--3---3-3-3--3-3-3-3--| 


************************************ 

| (n) Ghost note 
| h   Hammer-on 
| p   Pull-off 
| r   Release 
| b   Bend 
| /   Slide up 
| ~   Vibrato 

************************************ 
  

cifra enviadasem correções
enviado porenviada por:paulantunes
top 5 | the black angels
top rock alternativo
Outras músicas do artista letras do(a) The Black Angels
Top cifras »Top artistas »
Petaxxon Comunicação Online
Cifras.com.br - Melhor e mais completo site de cifras e tablaturas do Brasil
Mais de 1 milhão de acordes de músicas cadastradas desde 2003
As informações contidas no nosso site são colaborações de seus usuários e podem conter erros, sendo assim, não nos responsabilizamos sobre nenhuma destas.
close
menos
mais
close
Cor dos acordes:

Cor da letra:

 

save
close
close
 
redimensionar