Cifras e Tablaturas
The Black Box Revelation

The Black Box Revelation

Kill For Peace And Peace Will Die

Cifras Cancelar Versão de Impressão
cifras

The Black Box Revelation - Kill For Peace And Peace Will Die

fixar na tela  
Exibindo: vídeo-aula ver clipes redimensionar

Tom:

  
Intro 

E|-----------------------------------------| 
B|-----------------------------------------| 
G|---7-----7h9-7-----------------7-7-------| 
D|-9---9-9-------9--5-5-5--7-7-7-----9h7-9-| 
A|-9---9-9----------5-5-5--7-7-7---------9-| 
E|-7---7-7----------3-3-3--5-5-5---------7-| 


Verse 

E|-------------------------| 
B|-------------------------| 
G|-------------------------| 
D|-9-9-9--5-5-5--7-7-7-----| 
A|-9-9-9--5-5-5--7-7-7-----| 
E|-7-7-7--3-3-3--5-5-5-----| 


Chorus 

E|------------------------------------------------| 
B|------------------------------------------------| 
G|------------------------------------------------| 
D|-9-9-9-9-9--2-2-2-2-2---5-5-5-5-5---7-7-7-7-7---| 
A|-9-9-9-9-9--2-2-2-2-2---5-5-5-5-5---7-7-7-7-7---| 
E|-7-7-7-7-7--0-0-0-0-0---3-3-3-3-3---5-5-5-5-5---| 


Ending 

E|-------------------------| 
B|-------------------------| 
G|-------------------------| 
D|-9-9-9--5-5-5--7-7-7-----| 
A|-9-9-9--5-5-5--7-7-7-----| 
E|-7-7-7--3-3-3--5-5-5-----| 

E|-------------------------| 
B|-------------------------| 
G|-------------------------| 
D|-9-9-9--5-5-5--7-7-7-----| 
A|-9-9-9--5-5-5--7-7-7-----| 
E|-7-7-7--3-3-3--5-5-5-----| 
  Nanananana nananana  
 (Kill for peace and peace will die) 


*********************************** 
| h   Hummer-on 
*********************************** 
  

top 5 | the black box revelation
top rock alternativo
Outras músicas do artista letras do(a) The Black Box Revelation
Top cifras »Top artistas »
Petaxxon Comunicação Online
Cifras.com.br - Melhor e mais completo site de cifras e tablaturas do Brasil
Mais de 1 milhão de acordes de músicas cadastradas desde 2003
As informações contidas no nosso site são colaborações de seus usuários e podem conter erros, sendo assim, não nos responsabilizamos sobre nenhuma destas.
close
menos
mais
close
Cor dos acordes:

Cor da letra:

 

save
close
close
 
redimensionar