Cifras e Tablaturas
The Cadillac Three

The Cadillac Three

Tennessee

Cifras Cancelar Versão de Impressão
cifras

The Cadillac Three - Tennessee

fixar na tela  
Exibindo: vídeo-aula ver clipes redimensionar
  Main Riff 
e|-------------------------| 
B|-------------------------| 
G|-------------------------| 
D|3-6-3-8-3--10-10-8-6-6-3-| 
A|3-6-3-8-3--10-10-8-6-6-3-| 
E|1-4-1-6-1--8--8--6-4-4-1-| 

verse 1 
F                                     Eb5 
Get out the whiskey girl and put that black dress on 
Bb5 
Go on and chill the beer 
F                                             Eb5        Bb5 
I got a hundred million miles just looking at me in this cracked rear view mirror 
F 
I've been missing on, kissing on you 
             Eb5 
Listening to songs all night long 
Bb5 
Two weeks feels like two years 
F                                     Eb5 
Get out the whiskey girl and put that black dress on 

Chorus 
           Bb5     F          
I'm coming home to Tennessee 

Main Riff 
e|-------------------------| 
B|-------------------------| 
G|-------------------------| 
D|3-6-3-8-3--10-10-8-6-6-3-| 
A|3-6-3-8-3--10-10-8-6-6-3-| 
E|1-4-1-6-1--8--8--6-4-4-1-| 

Yeah Tennessee 

verse 2 
F                                  Eb5 
Get out the vinyl girl and put old Sturgill on 
Bb5 
Go on and turn it up loud 
F                                                    Eb5               Bb5 
I need to feel, need to hear need to hold, something real tonight like sweet southern sounds 
F 
I've been missing on, kissing on you 
             Eb5 
Listening to songs all night long 
Bb5 
Lost tonight, baby I'm found 
F                                  Eb5 
Get out the vinyl girl and put old Sturgill on 

Chorus 
           Bb5     F         
I'm coming home to Tennessee 

Main Riff 
e|-------------------------| 
B|-------------------------| 
G|-------------------------| 
D|3-6-3-8-3--10-10-8-6-6-3-| 
A|3-6-3-8-3--10-10-8-6-6-3-| 
E|1-4-1-6-1--8--8--6-4-4-1-| 

Yeah Tennessee 

Solo 
F G#5 
F G#5 
F G#5 
F G#5 

Main Riff 
e|-------------------------| 
B|-------------------------| 
G|-------------------------| 
D|3-6-3-8-3--10-10-8-6-6-3-| 
A|3-6-3-8-3--10-10-8-6-6-3-| 
E|1-4-1-6-1--8--8--6-4-4-1-| 

Chorus 
N.C. 
Get out the whiskey girl and put that black dress on 
N.C. 
I'm coming home to Tenessee 

Main Riff 
e|-------------------------| 
B|-------------------------| 
G|-------------------------| 
D|3-6-3-8-3--10-10-8-6-6-3-| 
A|3-6-3-8-3--10-10-8-6-6-3-| 
E|1-4-1-6-1--8--8--6-4-4-1-| 

Yeah Tennessee 
  

cifra enviadasem correções
enviado porenviada por:jov-correa
top 5 | the cadillac three
top country
Outras músicas do artista letras do(a) The Cadillac Three
Top cifras »Top artistas »
Petaxxon Comunicação Online
Cifras.com.br - Melhor e mais completo site de cifras e tablaturas do Brasil
Mais de 1 milhão de acordes de músicas cadastradas desde 2003
As informações contidas no nosso site são colaborações de seus usuários e podem conter erros, sendo assim, não nos responsabilizamos sobre nenhuma destas.
close
menos
mais
close
Cor dos acordes:

Cor da letra:

 

save
close
close
 
redimensionar