Cifras e Tablaturas
The Coathangers

The Coathangers

Follow Me

Cifras Cancelar Versão de Impressão Print

The Coathangers - Follow Me

Tom:

  • 0:00 / 0:00
  			
Intro 

e|---------------------------------------------------------------------------| 
B|---------------------------------------------------------------------------| 
G|-6-x-x-x-x-x-x-6-6-x-x-x-x-x-x-6-6-9-8-6--6-4-6----------------------------| 
D|-6-x-x-x-x-x-x-6-6-x-x-x-x-x-x-6-6-9-8-6--6-4-6----------------------------| 
A|-4-x-x-x-x-x-x-4-4-x-x-x-x-x-x-4-4-7-6-4--4-2-4----------------------------| x2 
E|---------------------------------------------------------------------------|  


Verse 

e|---------------------------------------------------------------------------| 
B|---------------------------------------------------------------------------| 
G|-6-x-x-x-x-x-x-6-6-x-x-x-x-x-x-6-6-9-8-6--6-4-6----------------------------| 
D|-6-x-x-x-x-x-x-6-6-x-x-x-x-x-x-6-6-9-8-6--6-4-6----------------------------| 
A|-4-x-x-x-x-x-x-4-4-x-x-x-x-x-x-4-4-7-6-4--4-2-4----------------------------|  
E|---------------------------------------------------------------------------| 
I chase round down there  
I chase you down until you're dead  

e|---------------------------------------------------------------------------| 
B|---------------------------------------------------------------------------| 
G|-6-x-x-x-x-x-x-6-6-x-x-x-x-x-x-6-6-9-8-6--6-4-6----------------------------| 
D|-6-x-x-x-x-x-x-6-6-x-x-x-x-x-x-6-6-9-8-6--6-4-6----------------------------| 
A|-4-x-x-x-x-x-x-4-4-x-x-x-x-x-x-4-4-7-6-4--4-2-4----------------------------|  
E|---------------------------------------------------------------------------| 
But just follow the road 
You can see how I can go. 


Bridge 

e|---------------------------------------------------------------------------| 
B|---------------------------------------------------------------------------| 
G|-13-13-13-13-13-13-13-13-12-12-12-12-12-12-12-12---------------------------| 
D|-13-13-13-13-13-13-13-13-12-12-12-12-12-12-12-12---------------------------| 
A|-11-11-11-11-11-11-11-11-10-10-10-10-10-10-10-10---------------------------| 
E|---------------------------------------------------------------------------| 


Interlude 

e|---------------------------------------------------------------------------| 
B|---------------------------------------------------------------------------| 
G|-7-7-5-7-------------------------------------------------------------------| 
D|-7-7-5-7-------------------------------------------------------------------| 
A|-5-5-3-5-------------------------------------------------------------------| 
E|---------------------------------------------------------------------------| 


Verse 

e|---------------------------------------------------------------------------| 
B|---------------------------------------------------------------------------| 
G|-6-x-x-x-x-x-x-6-6-x-x-x-x-x-x-6-6-9-8-6--6-4-6----------------------------| 
D|-6-x-x-x-x-x-x-6-6-x-x-x-x-x-x-6-6-9-8-6--6-4-6----------------------------| 
A|-4-x-x-x-x-x-x-4-4-x-x-x-x-x-x-4-4-7-6-4--4-2-4----------------------------| 
E|---------------------------------------------------------------------------| 
Like an option you know 
I hate it acted, started the cold  

e|---------------------------------------------------------------------------| 
B|---------------------------------------------------------------------------| 
G|-6-x-x-x-x-x-x-6-6-x-x-x-x-x-x-6-6-9-8-6--6-4-6----------------------------| 
D|-6-x-x-x-x-x-x-6-6-x-x-x-x-x-x-6-6-9-8-6--6-4-6----------------------------| 
A|-4-x-x-x-x-x-x-4-4-x-x-x-x-x-x-4-4-7-6-4--4-2-4----------------------------| 
E|---------------------------------------------------------------------------| 
But just follow the beat  
He don't wanna get fuck with the beat no. 


Bridge 

e|---------------------------------------------------------------------------| 
B|---------------------------------------------------------------------------| 
G|-13-13-13-13-13-13-13-13-12-12-12-12-12-12-12-12---------------------------| 
D|-13-13-13-13-13-13-13-13-12-12-12-12-12-12-12-12---------------------------| 
A|-11-11-11-11-11-11-11-11-10-10-10-10-10-10-10-10---------------------------| x2 
E|---------------------------------------------------------------------------| 


Verse 

e|---------------------------------------------------------------------------| 
B|---------------------------------------------------------------------------| 
G|-6-x-x-x-x-x-x-6-6-x-x-x-x-x-x-6-6-9-8-6--6-4-6----------------------------| 
D|-6-x-x-x-x-x-x-6-6-x-x-x-x-x-x-6-6-9-8-6--6-4-6----------------------------| 
A|-4-x-x-x-x-x-x-4-4-x-x-x-x-x-x-4-4-7-6-4--4-2-4----------------------------| 
E|---------------------------------------------------------------------------| 
She surrounds my bed,  
She's so down until you're there  

e|---------------------------------------------------------------------------| 
B|---------------------------------------------------------------------------| 
G|-6-x-x-x-x-x-x-6-6-x-x-x-x-x-x-6-6-9-8-6--6-4-6----------------------------| 
D|-6-x-x-x-x-x-x-6-6-x-x-x-x-x-x-6-6-9-8-6--6-4-6----------------------------| 
A|-4-x-x-x-x-x-x-4-4-x-x-x-x-x-x-4-4-7-6-4--4-2-4----------------------------| 
E|---------------------------------------------------------------------------| 
But just follow the road 
You wanna see how low I can go. 


Bridge 

e|---------------------------------------------------------------------------| 
B|---------------------------------------------------------------------------| 
G|-13-13-13-13-13-13-13-13-12-12-12-12-12-12-12-12---------------------------| 
D|-13-13-13-13-13-13-13-13-12-12-12-12-12-12-12-12---------------------------| 
A|-11-11-11-11-11-11-11-11-10-10-10-10-10-10-10-10---------------------------| x2 
E|---------------------------------------------------------------------------| 


Chorus 

e|---------------------------------------------------------------------------| 
B|---------------------------------------------------------------------------| 
G|-5-5-5-5-5-5-5-5-5-5-5-5-5-5-5-5--10-10-10-10-10-10-10-10--8-8-8-8-8-8-8-8-| 
D|-5-5-5-5-5-5-5-5-5-5-5-5-5-5-5-5--10-10-10-10-10-10-10-10--8-8-8-8-8-8-8-8-| 
A|-3-3-3-3-3-3-3-3-3-3-3-3-3-3-3-3--8--8--8--8--8--8--8--8---6-6-6-6-6-6-6-6-| 
E|---------------------------------------------------------------------------| 
Well I'll be getting, a lot to know  
He gotta follow me, follow me, follow me no oh! 

e|---------------------------------------------------------------------------| 
B|---------------------------------------------------------------------------| 
G|-5-5-5-5-5-5-5-5-5-5-5-5-5-5-5-5--10-10-10-10-10-10-10-10--8-8-8-8-8-8-8-8-| 
D|-5-5-5-5-5-5-5-5-5-5-5-5-5-5-5-5--10-10-10-10-10-10-10-10--8-8-8-8-8-8-8-8-| 
A|-3-3-3-3-3-3-3-3-3-3-3-3-3-3-3-3--8--8--8--8--8--8--8--8---6-6-6-6-6-6-6-6-| 
E|---------------------------------------------------------------------------| 
Take my lead, you take a lead 

e|---------------------------------------------------------------------------| 
B|---------------------------------------------------------------------------| 
G|-5-5-5-5-5-5-5-5-5-5-5-5-5-5-5-5--10-10-10-10-10-10-10-10--8-8-8-8-8-8-8-8-| 
D|-5-5-5-5-5-5-5-5-5-5-5-5-5-5-5-5--10-10-10-10-10-10-10-10--8-8-8-8-8-8-8-8-| 
A|-3-3-3-3-3-3-3-3-3-3-3-3-3-3-3-3--8--8--8--8--8--8--8--8---6-6-6-6-6-6-6-6-| 
E|---------------------------------------------------------------------------| 
He got me, he gotta know  
He gotta follow me, follow me, follow me no oh! 

e|---------------------------------------------------------------------------| 
B|---------------------------------------------------------------------------| 
G|-5-5-5-5-5-5-5-5-5-5-5-5-5-5-5-5--10-10-10-10-10-10-10-10--8-8-8-8-8-8-8-8-| 
D|-5-5-5-5-5-5-5-5-5-5-5-5-5-5-5-5--10-10-10-10-10-10-10-10--8-8-8-8-8-8-8-8-| 
A|-3-3-3-3-3-3-3-3-3-3-3-3-3-3-3-3--8--8--8--8--8--8--8--8---6-6-6-6-6-6-6-6-| 
E|---------------------------------------------------------------------------| 
Take my lead, you take a lead.  


Bridge 2 

e|-5/21--16--12--8-----------------------------------------------------------| 
B|-5/21--16--12--8-----------------------------------------------------------| 
G|-5/21--16--12--8-----------------------------------------------------------| 
D|---------------------------------------------------------------------------| 
A|---------------------------------------------------------------------------| 
E|---------------------------------------------------------------------------| 


Instrumental 

e|---------------------------------------------------------------------------| 
B|---------------------------------------------------------------------------| 
G|-6-x-x-x-x-x-x-6-6-x-x-x-x-x-x-6-6-9-8-6--6-4-6----------------------------| 
D|-6-x-x-x-x-x-x-6-6-x-x-x-x-x-x-6-6-9-8-6--6-4-6----------------------------| 
A|-4-x-x-x-x-x-x-4-4-x-x-x-x-x-x-4-4-7-6-4--4-2-4----------------------------| 
E|---------------------------------------------------------------------------| 


Verse 

e|---------------------------------------------------------------------------| 
B|---------------------------------------------------------------------------| 
G|-6-x-x-x-x-x-x-6-6-x-x-x-x-x-x-6-6-9-8-6--6-4-6----------------------------| 
D|-6-x-x-x-x-x-x-6-6-x-x-x-x-x-x-6-6-9-8-6--6-4-6----------------------------| 
A|-4-x-x-x-x-x-x-4-4-x-x-x-x-x-x-4-4-7-6-4--4-2-4----------------------------| 
E|---------------------------------------------------------------------------| 
She surrounds my bed,  
She's so down until you're there  

e|---------------------------------------------------------------------------| 
B|---------------------------------------------------------------------------| 
G|-6-x-x-x-x-x-x-6-6-x-x-x-x-x-x-6-6-9-8-6--6-4-6----------------------------| 
D|-6-x-x-x-x-x-x-6-6-x-x-x-x-x-x-6-6-9-8-6--6-4-6----------------------------| 
A|-4-x-x-x-x-x-x-4-4-x-x-x-x-x-x-4-4-7-6-4--4-2-4----------------------------| 
E|---------------------------------------------------------------------------| 
But just follow the road 
You wanna see how low I can go 


Bridge 

e|---------------------------------------------------------------------------| 
B|---------------------------------------------------------------------------| 
G|-13-13-13-13-13-13-13-13-12-12-12-12-12-12-12-12---------------------------| 
D|-13-13-13-13-13-13-13-13-12-12-12-12-12-12-12-12---------------------------| 
A|-11-11-11-11-11-11-11-11-10-10-10-10-10-10-10-10---------------------------| 
E|---------------------------------------------------------------------------| 


Interlude 

e|---------------------------------------------------------------------------| 
B|---------------------------------------------------------------------------| 
G|-7-7-5-7-------------------------------------------------------------------| 
D|-7-7-5-7-------------------------------------------------------------------| 
A|-5-5-3-5-------------------------------------------------------------------| 
E|---------------------------------------------------------------------------| 


Verse 

e|---------------------------------------------------------------------------| 
B|---------------------------------------------------------------------------| 
G|-6-x-x-x-x-x-x-6-6-x-x-x-x-x-x-6-6-9-8-6--6-4-6----------------------------| 
D|-6-x-x-x-x-x-x-6-6-x-x-x-x-x-x-6-6-9-8-6--6-4-6----------------------------| 
A|-4-x-x-x-x-x-x-4-4-x-x-x-x-x-x-4-4-7-6-4--4-2-4----------------------------| 
E|---------------------------------------------------------------------------| 
Who lying that you know 
Hated every story that you told 

e|---------------------------------------------------------------------------| 
B|---------------------------------------------------------------------------| 
G|-6-x-x-x-x-x-x-6-6-x-x-x-x-x-x-6-6-9-8-6--6-4-6----------------------------| 
D|-6-x-x-x-x-x-x-6-6-x-x-x-x-x-x-6-6-9-8-6--6-4-6----------------------------| 
A|-4-x-x-x-x-x-x-4-4-x-x-x-x-x-x-4-4-7-6-4--4-2-4----------------------------| 
E|---------------------------------------------------------------------------| 
Just follow the beat 
He got no one to follow the beat, no 


Bridge 

e|---------------------------------------------------------------------------| 
B|---------------------------------------------------------------------------| 
G|-13-13-13-13-13-13-13-13-12-12-12-12-12-12-12-12---------------------------| 
D|-13-13-13-13-13-13-13-13-12-12-12-12-12-12-12-12---------------------------| 
A|-11-11-11-11-11-11-11-11-10-10-10-10-10-10-10-10---------------------------| x2 
E|---------------------------------------------------------------------------|  


Chorus 

e|---------------------------------------------------------------------------| 
B|---------------------------------------------------------------------------| 
G|-5-5-5-5-5-5-5-5-5-5-5-5-5-5-5-5--10-10-10-10-10-10-10-10--8-8-8-8-8-8-8-8-| 
D|-5-5-5-5-5-5-5-5-5-5-5-5-5-5-5-5--10-10-10-10-10-10-10-10--8-8-8-8-8-8-8-8-| 
A|-3-3-3-3-3-3-3-3-3-3-3-3-3-3-3-3--8--8--8--8--8--8--8--8---6-6-6-6-6-6-6-6-| 
E|---------------------------------------------------------------------------| 
Well I'll be getting, a lot to know  
He gotta follow me, follow me, follow me no oh! 

e|---------------------------------------------------------------------------| 
B|---------------------------------------------------------------------------| 
G|-5-5-5-5-5-5-5-5-5-5-5-5-5-5-5-5--10-10-10-10-10-10-10-10--8-8-8-8-8-8-8-8-| 
D|-5-5-5-5-5-5-5-5-5-5-5-5-5-5-5-5--10-10-10-10-10-10-10-10--8-8-8-8-8-8-8-8-| 
A|-3-3-3-3-3-3-3-3-3-3-3-3-3-3-3-3--8--8--8--8--8--8--8--8---6-6-6-6-6-6-6-6-| 
E|---------------------------------------------------------------------------| 
Take my lead, you take a lead 

e|---------------------------------------------------------------------------| 
B|---------------------------------------------------------------------------| 
G|-5-5-5-5-5-5-5-5-5-5-5-5-5-5-5-5--10-10-10-10-10-10-10-10--8-8-8-8-8-8-8-8-| 
D|-5-5-5-5-5-5-5-5-5-5-5-5-5-5-5-5--10-10-10-10-10-10-10-10--8-8-8-8-8-8-8-8-| 
A|-3-3-3-3-3-3-3-3-3-3-3-3-3-3-3-3--8--8--8--8--8--8--8--8---6-6-6-6-6-6-6-6-| 
E|---------------------------------------------------------------------------| 
He got me, he gotta know  
He gotta follow me, follow me, follow me no oh! 

e|---------------------------------------------------------------------------| 
B|---------------------------------------------------------------------------| 
G|-5-5-5-5-5-5-5-5-5-5-5-5-5-5-5-5--10-10-10-10-10-10-10-10--8-8-8-8-8-8-8-8-| 
D|-5-5-5-5-5-5-5-5-5-5-5-5-5-5-5-5--10-10-10-10-10-10-10-10--8-8-8-8-8-8-8-8-| 
A|-3-3-3-3-3-3-3-3-3-3-3-3-3-3-3-3--8--8--8--8--8--8--8--8---6-6-6-6-6-6-6-6-| 
E|---------------------------------------------------------------------------| 
Take my lead, you take a lead 


Solo 

e|-13-13-13-13-13-13-13-13-13-13-13-13-13-13-13-13-10-10-11-11-8-8-8---------| 
B|-13-13-13-13-13-13-13-13-13-13-13-13-13-13-13-13-10-10-11-11-8-8-8---------| 
G|-13-13-13-13-13-13-13-13-13-13-13-13-13-13-13-13-10-10-11-11-8-8-8---------| 
D|---------------------------------------------------------------------------| 
A|---------------------------------------------------------------------------| 
E|---------------------------------------------------------------------------| 
                                                                                 x4 
e|-10-10-11-11-11-8----------------------------------------------------------| 
B|-10-10-11-11-11-8----------------------------------------------------------| 
G|-10-10-11-11-11-8----------------------------------------------------------| 
D|---------------------------------------------------------------------------| 
A|---------------------------------------------------------------------------| 
E|---------------------------------------------------------------------------| 


Instrumental 

e|---------------------------------------------------------------------------| 
B|---------------------------------------------------------------------------| 
G|-6-x-x-x-x-x-x-6-6-x-x-x-x-x-x-6-6-9-8-6--6-4-6----------------------------| 
D|-6-x-x-x-x-x-x-6-6-x-x-x-x-x-x-6-6-9-8-6--6-4-6----------------------------| 
A|-4-x-x-x-x-x-x-4-4-x-x-x-x-x-x-4-4-7-6-4--4-2-4----------------------------| 
E|---------------------------------------------------------------------------| 


Verse 

e|---------------------------------------------------------------------------| 
B|---------------------------------------------------------------------------| 
G|-6-x-x-x-x-x-x-6-6-x-x-x-x-x-x-6-6-9-8-6--6-4-6----------------------------| 
D|-6-x-x-x-x-x-x-6-6-x-x-x-x-x-x-6-6-9-8-6--6-4-6----------------------------| 
A|-4-x-x-x-x-x-x-4-4-x-x-x-x-x-x-4-4-7-6-4--4-2-4----------------------------| 
E|---------------------------------------------------------------------------| 
Who loves the kiss from hell 
And everybody I know can take this well 

e|---------------------------------------------------------------------------| 
B|---------------------------------------------------------------------------| 
G|-6-x-x-x-x-x-x-6-6-x-x-x-x-x-x-6-6-9-8-6--6-4-6----------------------------| 
D|-6-x-x-x-x-x-x-6-6-x-x-x-x-x-x-6-6-9-8-6--6-4-6----------------------------| 
A|-4-x-x-x-x-x-x-4-4-x-x-x-x-x-x-4-4-7-6-4--4-2-4----------------------------| 
E|---------------------------------------------------------------------------| 
You just follow the road  
But long to see how long you can go  


Bridge 

e|---------------------------------------------------------------------------| 
B|---------------------------------------------------------------------------| 
G|-13-13-13-13-13-13-13-13-12-12-12-12-12-12-12-12---------------------------| 
D|-13-13-13-13-13-13-13-13-12-12-12-12-12-12-12-12---------------------------| 
A|-11-11-11-11-11-11-11-11-10-10-10-10-10-10-10-10---------------------------| 
E|---------------------------------------------------------------------------| 


Chorus 

e|---------------------------------------------------------------------------| 
B|---------------------------------------------------------------------------| 
G|-5-5-5-5-5-5-5-5-5-5-5-5-5-5-5-5--10-10-10-10-10-10-10-10--8-8-8-8-8-8-8-8-| 
D|-5-5-5-5-5-5-5-5-5-5-5-5-5-5-5-5--10-10-10-10-10-10-10-10--8-8-8-8-8-8-8-8-| 
A|-3-3-3-3-3-3-3-3-3-3-3-3-3-3-3-3--8--8--8--8--8--8--8--8---6-6-6-6-6-6-6-6-| 
E|---------------------------------------------------------------------------| 
Well I'll be getting, a lot to know  
He gotta follow me, follow me, follow me no  

e|---------------------------------------------------------------------------| 
B|---------------------------------------------------------------------------| 
G|-5-5-5-5-5-5-5-5-5-5-5-5-5-5-5-5--10-10-10-10-10-10-10-10--8-8-8-8-8-8-8-8-| 
D|-5-5-5-5-5-5-5-5-5-5-5-5-5-5-5-5--10-10-10-10-10-10-10-10--8-8-8-8-8-8-8-8-| 
A|-3-3-3-3-3-3-3-3-3-3-3-3-3-3-3-3--8--8--8--8--8--8--8--8---6-6-6-6-6-6-6-6-| 
E|---------------------------------------------------------------------------| 
Take my lead, you take a lead 

e|---------------------------------------------------------------------------| 
B|---------------------------------------------------------------------------| 
G|-5-5-5-5-5-5-5-5-5-5-5-5-5-5-5-5--10-10-10-10-10-10-10-10--8-8-8-8-8-8-8-8-| 
D|-5-5-5-5-5-5-5-5-5-5-5-5-5-5-5-5--10-10-10-10-10-10-10-10--8-8-8-8-8-8-8-8-| 
A|-3-3-3-3-3-3-3-3-3-3-3-3-3-3-3-3--8--8--8--8--8--8--8--8---6-6-6-6-6-6-6-6-| 
E|---------------------------------------------------------------------------| 
He got me, he gotta know  
He gotta follow me, follow me, follow me no 

e|---------------------------------------------------------------------------| 
B|---------------------------------------------------------------------------| 
G|-5-5-5-5-5-5-5-5-5-5-5-5-5-5-5-5--10-10-10-10-10-10-10-10--8-8-8-8-8-8-8-8-| 
D|-5-5-5-5-5-5-5-5-5-5-5-5-5-5-5-5--10-10-10-10-10-10-10-10--8-8-8-8-8-8-8-8-| 
A|-3-3-3-3-3-3-3-3-3-3-3-3-3-3-3-3--8--8--8--8--8--8--8--8---6-6-6-6-6-6-6-6-| 
E|---------------------------------------------------------------------------| 
Take my lead, you take a lead. 



************************************ 

| x  Dead note 
| /  Slide up 

************************************ 
    	

enviado porenviado por: aleffederico
cifra enviadaCorrigida por: sem correções
logo top cifrasComente
ico música do artistaMúsicas deste artista
ico curtiuCurtiu?
ico destaqueDestaque
Petaxxon Comunicação Online

Cifras.com.br - Melhor e mais completo site de cifras e tablaturas do Brasil Mais de 1 milhão de acordes de músicas cadastradas desde 2003
As informações contidas no nosso site são colaborações de seus usuários e podem conter erros, sendo assim, não nos responsabilizamos sobre nenhuma destas.

close
menos
mais
close
Cor dos acordes:

Cor da letra:

close
Alinhar acordes a direita Alinhar acordes a esquerda Alinhar acordes em baixo Alinhar acordes no topo
close
  Mostrar todos os acordes Esconder acordes muito fáceis Esconder acordes fáceis Esconder acordes intermediários
redimensionar
glossário