Cifras e Tablaturas
The Coathangers

The Coathangers

Trailer Park Boneyard

Cifras Cancelar Versão de Impressão Print

The Coathangers - Trailer Park Boneyard

Tom:

  • 0:00 / 0:00
  			

Intro/Verse 
e|-------------------------------------------------------------------------| 
B|--------------------10-8----8-7-7-7-8-8-8-8-8-7-7-7-8-8-8-8--------------| 
G|-9-9-9-9-9-9-9-9-------9-------------------------------------------------| 
D|-------------------------------------------------------------------------|  x2 
A|-------------------------------------------------------------------------| 
E|-------------------------------------------------------------------------| 

e|------------------------------------------------------------------| 
B|-------------------------------------10-8-(8)--third time only)---| 
G|------------------------------------------------------------------| 
D|--12-12-12-12-12-12-12-12-9-9-------------------------------------|  x3 
A|------------------------------------------------------------------| 
E|------------------------------------------------------------------| 

e|------0----------0----------------0--------------0--------------------| 
B|------0----------0----------------3--------------0--------------------| 
G|------0----x16--2---x16--X2----2----x16----- 0----x16-----X2----------| 
D|------2----------2---------------0--------------2---------------------| 
A|------2----------0---------------0--------------2---------------------| 
E|------0----------0---------------0--------------0---------------------| 

e|--------12---15--12---15---12---15~------------------------------| 
B|--------12---15--12---15---12---15~------------------------------| 
G|--------12---15--12---15---12---15~------------------------------| 
D|-----------------------------------------------------------------| 
A|-----------------------------------------------------------------| 
E|-----------------------------------------------------------------| 

then back to the beginning 

there is a part that you can mess around with during the verse... it is below. 

e|----10 x16---8 x16---10 x16--8 x16-8 x8--5-5-3-5-8 x8-5-5-3-5--------------------| 
B|---------------------------------------------------------------------------------| 
G|---------------------------------------------------------------------------------| 
D|---------------------------------------------------------------------------------| 
A|---------------------------------------------------------------------------------| 
E|---------------------------------------------------------------------------------| 

e|----8 x8--5-5-3-5-5~---------------------------------------------| 
B|-----------------------------------------------------------------| 
G|-----------------------------------------------------------------| 
D|-----------------------------------------------------------------| 
A|-----------------------------------------------------------------| 
E|-----------------------------------------------------------------| 
    	

enviado porenviado por: hugo_rodrigues
cifra enviadaCorrigida por: sem correções
logo top cifrasComente
ico música do artistaMúsicas deste artista
ico curtiuCurtiu?
ico destaqueDestaque
Petaxxon Comunicação Online

Cifras.com.br - Melhor e mais completo site de cifras e tablaturas do Brasil Mais de 1 milhão de acordes de músicas cadastradas desde 2003
As informações contidas no nosso site são colaborações de seus usuários e podem conter erros, sendo assim, não nos responsabilizamos sobre nenhuma destas.

close
menos
mais
close
Cor dos acordes:

Cor da letra:

close
Alinhar acordes a direita Alinhar acordes a esquerda Alinhar acordes em baixo Alinhar acordes no topo
close
  Mostrar todos os acordes Esconder acordes muito fáceis Esconder acordes fáceis Esconder acordes intermediários
redimensionar
glossário