Cifras e Tablaturas
The Controllers

The Controllers

Neutron Bomb

Cifras Cancelar Versão de Impressão
cifras

The Controllers - Neutron Bomb

fixar na tela  
Exibindo: vídeo-aula ver clipes redimensionar
  
Song starts with some gibberish, doesn't really start until the first E 
e|---------------------| 
B|---------------------| 
G|---------------------| 
D|-2------2----4-5-x-5-| 
A|-2------2----4-5-x-5-| 
E|-0------0----2-3-x-3-| x2, Play the first E once 

e|--------------------------| 
B|--------------------------| 
G|--------------------------| 
D|-x-x-2--2-2-2-4-4-x-5--5-5| 
A|-x-x-2--2-2-2-4-4-x-5--5-5| 
E|-x-x-0--0-0-0-2-2-x-3--3-3| x6 

e|------------------| 
B|------------------| 
G|------------------| 
D|-2----4----5----4-| 
A|-2----4----5----4-| 
E|-0----2----3----2-| x1 

e|--------------| 
B|--------------| 
G|--------------| 
D|-2----4-5-x-5-| 
A|-2----4-5-x-5-| 
E|-0----2-3-x-3-| x2 

e|--------------------------| 
B|--------------------------| 
G|--------------------------| 
D|-x-x-2--2-2-2-4-4-x-5--5-5| 
A|-x-x-2--2-2-2-4-4-x-5--5-5| 
E|-x-x-0--0-0-0-2-2-x-3--3-3| x2 

e|--------------| 
B|--------------| 
G|--------------| 
D|-2----4-5-x-5-| 
A|-2----4-5-x-5-| 
E|-0----2-3-x-3-| x2 

e|--------------------------| 
B|--------------------------| 
G|--------------------------| 
D|-x-x-2--2-2-2-4-4-x-5--5-5| 
A|-x-x-2--2-2-2-4-4-x-5--5-5| 
E|-x-x-0--0-0-0-2-2-x-3--3-3| x2 

e|--------------| 
B|--------------| 
G|--------------| 
D|-2----4-5-x-5-| 
A|-2----4-5-x-5-| 
E|-0----2-3-x-3-| x2 

e|-------------------------------| 
B|-------------------------------| 
G|-------------------------------| 
D|-7-7-7-7-7-7-7-7--5-5-x-4--4-4-| 
A|-7-7-7-7-7-7-7-7--5-5-x-4--4-4-| 
E|-5-5-5-5-5-5-5-5--3-3-x-2--2-2-| x4 

e|--------------| 
B|--------------| 
G|--------------| 
D|-2----4-5-x-5-| 
A|-2----4-5-x-5-| 
E|-0----2-3-x-3-| x2 

These are played under the solo... I ain't tabbing the solo so figure it out if you want 
e|--------------------------| 
B|--------------------------| 
G|--------------------------| 
D|-x-x-2--2-2-2-4-4-x-5--5-5| 
A|-x-x-2--2-2-2-4-4-x-5--5-5| 
E|-x-x-0--0-0-0-2-2-x-3--3-3| x4 

e|------------------| 
B|------------------| 
G|------------------| 
D|-2----4----5----4-| 
A|-2----4----5----4-| 
E|-0----2----3----2-| x1 

e|--------------| 
B|--------------| 
G|--------------| 
D|-2----4-5-x-5-| 
A|-2----4-5-x-5-| 
E|-0----2-3-x-3-| x2 

e|-------------------------------| 
B|-------------------------------| 
G|-------------------------------| 
D|-7-7-7-7-7-7-7-7--5-5-x-4--4-4-| 
A|-7-7-7-7-7-7-7-7--5-5-x-4--4-4-| 
E|-5-5-5-5-5-5-5-5--3-3-x-2--2-2-| x4 

e|--------------| 
B|--------------| 
G|--------------| 
D|-2----4-5-x-5-| 
A|-2----4-5-x-5-| 
E|-0----2-3-x-3-| x4 



************************************ 

| x  Dead note 

************************************ 
  

cifra enviadasem correções
enviado porenviada por:hebealmeida
top 5 | the controllers
top rock'n roll
Outras músicas do artista letras do(a) The Controllers
Top cifras »Top artistas »
Petaxxon Comunicação Online
Cifras.com.br - Melhor e mais completo site de cifras e tablaturas do Brasil
Mais de 1 milhão de acordes de músicas cadastradas desde 2003
As informações contidas no nosso site são colaborações de seus usuários e podem conter erros, sendo assim, não nos responsabilizamos sobre nenhuma destas.
close
menos
mais
close
Cor dos acordes:

Cor da letra:

 

save
close
close
 
redimensionar