Cifras e Tablaturas
The Cramps

The Cramps

Drug Train

Cifras Cancelar Versão de Impressão
cifras

The Cramps - Drug Train

fixar na tela  
Exibindo: vídeo-aula ver clipes redimensionar
  
Intro 
  N.C.(4 snare drum notes)  B5 
e|------------------------|------------------------| 
B|------------------------|------------------------| 
G|------------------------|-4--4--4--4--4--4--4--4-| 
D|------------------------|-4--4--4--4--4--4--4--4-| 
A|------------------------|-2--2--2--2--2--2--2--2-| 
E|------------------------|------------------------| 


verse 1 
   Hey      people,      all       aboard       the       drug       train 
e|------------------------------------------------|------------------------------------------------| 
B|------------------------------------------------|------------------------------------------------| 
G|------------------------------------------------|------------------------------------------------| 
D|------------------------------------------------|------------------------------------------------| 
A|-2--2--2--2--2--2--2--2--2--2--2--2--2--2--2--2-|-2--2--2--2--2--2--2--2--2--2--2--2--2--2--2--2-| 
E|-0--0--3--3--0--0--3--3--0--0--3--3--0--0--3--3-|-0--0--3--3--0--0--3--3--0--0--3--3--0--0--3--3-| 

   Going    to    Plasteredville,    Anyville,      and      Miltown  
e|------------------------------------------------|------------------------------------------------| 
B|------------------------------------------------|------------------------------------------------| 
G|------------------------------------------------|------------------------------------------------| 
D|------------------------------------------------|------------------------------------------------| 
A|------------------------------------------------|-2--2--2--2--2--2--2--2--2--2--2--2--2--2--2--2-| 
E|-4-h5--5--4-h5--5--4-----4-h5--5--4-h5--5--4----|-0--0--3--3--0--0--3--3--0--0--3--3--0--0--3--3-| 

e|------------------------------------------------|------------------------------------------------| 
B|------------------------------------------------|------------------------------------------------| 
G|-4--4--4--4--4--4--4--4--2--2--2--2--2--2--2--2-|-------------------------4--4--4--4--4--4--4--4-| 
D|-4--4--4--4--4--4--4--4--2--2--2--2--2--2--2--2-|-------------------------4--4--4--4--4--4--4--4-| 
A|-2--2--2--2--2--2--2--2--0--0--0--0--0--0--0--0-|-2--2--2--2--2--2--2--2--2--2--2--2--2--2--2--2-| 
E|------------------------------------------------|-0--0--3--3--0--0--3--3-------------------------| 


verse 2 
   We're     on     the     drug     train,         have    a    nice    day  
e|------------------------------------------------|------------------------------------------------| 
B|------------------------------------------------|------------------------------------------------| 
G|------------------------------------------------|------------------------------------------------| 
D|------------------------------------------------|------------------------------------------------| 
A|-2--2--2--2--2--2--2--2--2--2--2--2--2--2--2--2-|-2--2--2--2--2--2--2--2--2--2--2--2--2--2--2--2-| 
E|-0--0--3--3--0--0--3--3--0--0--3--3--0--0--3--3-|-0--0--3--3--0--0--3--3--0--0--3--3--0--0--3--3-| 

   We're     on     the     drug     train,         now   watch   me   get   on   board 
e|------------------------------------------------|------------------------------------------------| 
B|------------------------------------------------|------------------------------------------------| 
G|------------------------------------------------|------------------------------------------------| 
D|------------------------------------------------|------------------------------------------------| 
A|------------------------------------------------|-2--2--2--2--2--2--2--2--2--2--2--2--2--2--2--2-| 
E|-4-h5--5--4-h5--5--4-----4-h5--5--4-h5--5--4----|-0--0--3--3--0--0--3--3--0--0--3--3--0--0--3--3-| 

  I used to know where I was going 'til I got on board the drug train 
e|------------------------------------------------|------------------------------------------------| 
B|------------------------------------------------|------------------------------------------------| 
G|-------------------------2--2--2--2--2--2--2--2-|-------------------------4--4--4--4--4--4--4--4-| 
D|-4--4--4--4--4--4--4--4--2--2--2--2--2--2--2--2-|-------------------------4--4--4--4--4--4--4--4-| 
A|-4--4--4--4--4--4--4--4--0--0--0--0--0--0--0--0-|-2--2--2--2--2--2--2--2--2--2--2--2--2--2--2--2-| 
E|-2--2--2--2--2--2--2--2-------------------------|-0--0--3--3--0--0--3--3-------------------------| 


verse 3 
   I'm going to show you how                        to   get   on   board 
e|------------------------------------------------|------------------------------------------------| 
B|------------------------------------------------|------------------------------------------------| 
G|------------------------------------------------|------------------------------------------------| 
D|------------------------------------------------|------------------------------------------------| 
A|-2--2--2--2--2--2--2--2--2--2--2--2--2--2--2--2-|-2--2--2--2--2--2--2--2--2--2--2--2--2--2--2--2-| 
E|-0--0--3--3--0--0--3--3--0--0--3--3--0--0--3--3-|-0--0--3--3--0--0--3--3--0--0--3--3--0--0--3--3-| 

   You    put    one    foot    up                  You  put  another  foot  up 
e|------------------------------------------------|------------------------------------------------| 
B|------------------------------------------------|------------------------------------------------| 
G|------------------------------------------------|------------------------------------------------| 
D|------------------------------------------------|------------------------------------------------| 
A|------------------------------------------------|-2--2--2--2--2--2--2--2--2--2--2--2--2--2--2--2-| 
E|-4-h5--5--4-h5--5--4-----4-h5--5--4-h5--5--4----|-0--0--3--3--0--0--3--3--0--0--3--3--0--0--3--3-| 

   You  put  another  foot  up  and  you're  on  board  the  drug  train                Hey people! 
e|------------------------------------------------|------------------------------------------------| 
B|------------------------------------------------|------------------------------------------------| 
G|-------------------------2--2--2--2--2--2--2--2-|-------------------------4--4--4--4--4--4--4--4-| 
D|-4--4--4--4--4--4--4--4--2--2--2--2--2--2--2--2-|-------------------------4--4--4--4--4--4--4--4-| 
A|-4--4--4--4--4--4--4--4--0--0--0--0--0--0--0--0-|-2--2--2--2--2--2--2--2--2--2--2--2--2--2--2--2-| 
E|-2--2--2--2--2--2--2--2-------------------------|-0--0--3--3--0--0--3--3-------------------------| 


verse 4 
   All   across   the   snow-capped   mountains   down   in   the   tranquil   valleys 
e|------------------------------------------------|------------------------------------------------| 
B|------------------------------------------------|------------------------------------------------| 
G|------------------------------------------------|------------------------------------------------| 
D|------------------------------------------------|------------------------------------------------| 
A|-2--2--2--2--2--2--2--2--2--2--2--2--2--2--2--2-|-2--2--2--2--2--2--2--2--2--2--2--2--2--2--2--2-| 
E|-0--0--3--3--0--0--3--3--0--0--3--3--0--0--3--3-|-0--0--3--3--0--0--3--3--0--0--3--3--0--0--3--3-| 

   Open  up  that  Golden  Gate 
e|------------------------------------------------|------------------------------------------------| 
B|------------------------------------------------|------------------------------------------------| 
G|------------------------------------------------|------------------------------------------------| 
D|------------------------------------------------|------------------------------------------------| 
A|------------------------------------------------|-2--2--2--2--2--2--2--2--2--2--2--2--2--2--2--2-| 
E|-4-h5--5--4-h5--5--4-----4-h5--5--4-h5--5--4----|-0--0--3--3--0--0--3--3--0--0--3--3--0--0--3--3-| 

  Don't fall off this drug train now                Woo hoo the drug train 
e|------------------------------------------------|------------------------------------------------| 
B|------------------------------------------------|------------------------------------------------| 
G|-------------------------2--2--2--2--2--2--2--2-|-------------------------4--4--4--4--4--4--4--4-| 
D|-4--4--4--4--4--4--4--4--2--2--2--2--2--2--2--2-|-------------------------4--4--4--4--4--4--4--4-| 
A|-4--4--4--4--4--4--4--4--0--0--0--0--0--0--0--0-|-2--2--2--2--2--2--2--2--2--2--2--2--2--2--2--2-| 
E|-2--2--2--2--2--2--2--2-------------------------|-0--0--3--3--0--0--3--3-------------------------| 


Instrumental 
    
e|------------------------------------------------|------------------------------------------------| 
B|------------------------------------------------|------------------------------------------------| 
G|------------------------------------------------|------------------------------------------------| 
D|------------------------------------------------|------------------------------------------------| 
A|-2--2--2--2--2--2--2--2--2--2--2--2--2--2--2--2-|-2--2--2--2--2--2--2--2--2--2--2--2--2--2--2--2-| 
E|-0--0--3--3--0--0--3--3--0--0--3--3--0--0--3--3-|-0--0--3--3--0--0--3--3--0--0--3--3--0--0--3--3-| 

e|------------------------------------------------|------------------------------------------------| 
B|------------------------------------------------|------------------------------------------------| 
G|------------------------------------------------|------------------------------------------------| 
D|------------------------------------------------|------------------------------------------------| 
A|------------------------------------------------|-2--2--2--2--2--2--2--2--2--2--2--2--2--2--2--2-| 
E|-4-h5--5--4-h5--5--4-----4-h5--5--4-h5--5--4----|-0--0--3--3--0--0--3--3--0--0--3--3--0--0--3--3-| 

e|------------------------------------------------|------------------------------------------------| 
B|------------------------------------------------|------------------------------------------------| 
G|-------------------------2--2--2--2--2--2--2--2-|-------------------------4--4--4--4--4--4--4--4-| 
D|-4--4--4--4--4--4--4--4--2--2--2--2--2--2--2--2-|-------------------------4--4--4--4--4--4--4--4-| 
A|-4--4--4--4--4--4--4--4--0--0--0--0--0--0--0--0-|-2--2--2--2--2--2--2--2--2--2--2--2--2--2--2--2-| 
E|-2--2--2--2--2--2--2--2-------------------------|-0--0--3--3--0--0--3--3-------------------------| 


Verse 5 
   I  see  Elvis  with  your  mother                on  the  drug  train 
e|------------------------------------------------|------------------------------------------------| 
B|------------------------------------------------|------------------------------------------------| 
G|------------------------------------------------|------------------------------------------------| 
D|------------------------------------------------|------------------------------------------------| 
A|-2--2--2--2--2--2--2--2--2--2--2--2--2--2--2--2-|-2--2--2--2--2--2--2--2--2--2--2--2--2--2--2--2-| 
E|-0--0--3--3--0--0--3--3--0--0--3--3--0--0--3--3-|-0--0--3--3--0--0--3--3--0--0--3--3--0--0--3--3-| 

   Sherlock  Holmes  looks  for  clues            there's something to do on the drug train Sigmund 
e|------------------------------------------------|------------------------------------------------| 
B|------------------------------------------------|------------------------------------------------| 
G|------------------------------------------------|------------------------------------------------| 
D|------------------------------------------------|------------------------------------------------| 
A|------------------------------------------------|-2--2--2--2--2--2--2--2--2--2--2--2--2--2--2--2-| 
E|-4-h5--5--4-h5--5--4-----4-h5--5--4-h5--5--4----|-0--0--3--3--0--0--3--3--0--0--3--3--0--0--3--3-| 

  Freud is slipping and sliding with all of your friends on the drug train          
e|------------------------------------------------|------------------------------------------------| 
B|------------------------------------------------|------------------------------------------------| 
G|-------------------------2--2--2--2--2--2--2--2-|-------------------------4--4--4--4--4--4--4--4-| 
D|-4--4--4--4--4--4--4--4--2--2--2--2--2--2--2--2-|-------------------------4--4--4--4--4--4--4--4-| 
A|-4--4--4--4--4--4--4--4--0--0--0--0--0--0--0--0-|-2--2--2--2--2--2--2--2--2--2--2--2--2--2--2--2-| 
E|-2--2--2--2--2--2--2--2-------------------------|-0--0--3--3--0--0--3--3-------------------------| 


Verse 6 
   We're   on   the   drug   train     woo    hoo   the    drug    train      woo    hoo   
e|------------------------------------------------|------------------------------------------------| 
B|------------------------------------------------|------------------------------------------------| 
G|------------------------------------------------|------------------------------------------------| 
D|------------------------------------------------|------------------------------------------------| 
A|-2--2--2--2--2--2--2--2--2--2--2--2--2--2--2--2-|-2--2--2--2--2--2--2--2--2--2--2--2--2--2--2--2-| 
E|-0--0--3--3--0--0--3--3--0--0--3--3--0--0--3--3-|-0--0--3--3--0--0--3--3--0--0--3--3--0--0--3--3-| 

   Well  c'mon  everybody  and  get  on  board      the    drug    train      woo    hoo 
e|------------------------------------------------|------------------------------------------------| 
B|------------------------------------------------|------------------------------------------------| 
G|------------------------------------------------|------------------------------------------------| 
D|------------------------------------------------|------------------------------------------------| 
A|------------------------------------------------|-2--2--2--2--2--2--2--2--2--2--2--2--2--2--2--2-| 
E|-4-h5--5--4-h5--5--4-----4-h5--5--4-h5--5--4----|-0--0--3--3--0--0--3--3--0--0--3--3--0--0--3--3-| 

  Well c'mon everybody and get on board              
e|------------------------------------------------| 
B|------------------------------------------------| 
G|-------------------------2----------------------| 
D|-4--4--4--4--4--4--4--4--2----------------------| 
A|-4--4--4--4--4--4--4--4--0----------------------| 
E|-2--2--2--2--2--2--2--2-------------------------| 


Outro  
   The    drug    train      woo    hoo             the    drug    train      woo    hoo 
e|------------------------------------------------|------------------------------------------------| 
B|------------------------------------------------|------------------------------------------------| 
G|------------------------------------------------|------------------------------------------------| 
D|------------------------------------------------|------------------------------------------------| 
A|-2--2--2--2--2--2--2--2--2--2--2--2--2--2--2--2-|-2--2--2--2--2--2--2--2--2--2--2--2--2--2--2--2-| 
E|-0--0--3--3--0--0--3--3--0--0--3--3--0--0--3--3-|-0--0--3--3--0--0--3--3--0--0--3--3--0--0--3--3-| 

e|------------------------------------------------|------------------------------------------------| 
B|------------------------------------------------|------------------------------------------------| 
G|------------------------------------------------|------------------------------------------------| 
D|------------------------------------------------|------------------------------------------------| 
A|-2--2--2--2--2--2--2--2--2--2--2--2--2--2--2--2-|-2--2--2--2--2--2--2--2--2--2--2--2-------------| 
E|-0--0--3--3--0--0--3--3--0--0--3--3--0--0--3--3-|-0--0--3--3--0--0--3--3--0--0--3--0-------------| 


************************************ 

| h   Hammer-on    

************************************ 
  

cifra enviadasem correções
enviado porenviada por:adalgomes
top 5 | the cramps
top rock'n roll
Outras músicas do artista letras do(a) The Cramps
Top cifras »Top artistas »
Petaxxon Comunicação Online
Cifras.com.br - Melhor e mais completo site de cifras e tablaturas do Brasil
Mais de 1 milhão de acordes de músicas cadastradas desde 2003
As informações contidas no nosso site são colaborações de seus usuários e podem conter erros, sendo assim, não nos responsabilizamos sobre nenhuma destas.
close
menos
mais
close
Cor dos acordes:

Cor da letra:

 

save
close
close
 
redimensionar