Cifras e Tablaturas
The Cribs

The Cribs

Bastards Of Young

Cifras Cancelar Versão de Impressão
cifras

The Cribs - Bastards Of Young

fixar na tela  
Exibindo: vídeo-aula ver clipes redimensionar

Tom:

  
Intro 
e|--0-3--0-3--0---------------3---3--------------3---3----| 
B|-/5-5--5-5--5-----3-------5---5----5-----3---5---5----5-| 
G|---------------5-----5----------------5-----------------| 
D|---------------------5-x16------------------------------| 
A|---------------------3----------------------------------| 
E|--------------------------------------------------------| 

verse 1  
e|-----------------------------------------------| 
B|-----------------------------------------------| 
G|--------5--------------------------------5-----| 
D|-7------5(x8)--7------5------3-----5-----5(x8)-| (x2) 
A|-7(x8)--3------7(x8)--5(x8)--3(x8)-5(x8)-3-----| 
E|-5-------------5------3------1-----3-----------| 

Chorus 1  
(Alternatively you can play the main riff/hook/whatever) 
e|---------------------------------------------------------------------| 
B|---------------------------------------------------------------------| 
G|--------5-------------5------------------5-5-x-x-5-5-x-x-x-5-x-x-5-5-| 
D|-3------5(x16)-3------5(x16)-3-----5-----5-5-x-x-5-5-x-x-x-5-x-x-5-5-| 
A|-3(x16)-3------3(x16)-3------3(x8)-5(x8)-3-3-x-x-3-3-x-x-x-3-x-x-3-3-| 
E|-1-------------1-------------1-----3---------------------------------| 

verse 2  
e|-----------------------------------------------| 
B|-----------------------------------------------| 
G|--------5--------------------------------5-----| 
D|-7------5(x8)--7------5------3-----5-----5(x8)-| (x2) 
A|-7(x8)--3------7(x8)--5(x8)--3(x8)-5(x8)-3-----| 
E|-5-------------5------3------1-----3-----------| 

Chorus 2 
e|-------------------------------------------------------------------------------------| 
B|-------------5-3-------------------5-3-----------------------------------------------| 
G|--------5--------5-2-0--------5--------5-2-0-------------5-5-x-x-5-5-x-x-x-5-x-x-5-5-| 
D|-3------5(x8)----------3------5(x8)----------3-----5-----5-5-x-x-5-5-x-x-x-5-x-x-5-5-| 
A|-3(x16)-3--------------3(x16)-3--------------3(x8)-5(x8)-3-3-x-x-3-3-x-x-x-3-x-x-3-3-| 
E|-1---------------------1---------------------1-----3---------------------------------| 

Break/Pre-solo            
e|--------------------------------| 
B|--------------------------------| 
G|-----------(Got-no-right)-------| 
D|-7-----5-----5--5--5--5---3-----| 
A|-7(x8)-5(x8)-5--5--5--5---3(x8)-| 
E|-5-----3-----3--3--3--3---1-----| 

Solo 
e|----------------------------------------------------------| 
B|----------------------------------------------------------| 
G|-14---12---14--17--17-17-19-19-19-21-21-21-21-21-21-21-21-| 
D|----------------------------------------------------------| 
A|----------------------------------------------------------| 
E|----------------------------------------------------------| 

e|------------------------------------------------------------------| 
B|------------------------------------------------------------------| 
G|-14---12---14--17--17-17-14--14-14-14-14-14-12--12-12-12-12-12-12-| 
D|------------------------------------------------------------------| 
A|------------------------------------------------------------------| 
E|------------------------------------------------------------------| 

e|-----------------------------------------------------------------------------------| 
B|-----------------------------------------------------------------------------------| 
G|-17b--17b-17b-17b-17b-17b---19b--19b-19b-19b-19b-19b--5-5-x-x-5-5-x-x-x-5-x-x-5-5--| 
D|------------------------------------------------------5-5-x-x-5-5-x-x-x-5-x-x-5-5--| 
A|------------------------------------------------------3-3-x-x-3-3-x-x-x-3-x-x-3-3--| 
E|-----------------------------------------------------------------------------------| 

verse 3  
(palm muted)              Gradually play last chord louder 
e|------------------------------------------------| 
B|------------------------------------------------| 
G|--------5--------------------------------5------| 
D|-7------5(x8)--7------5------3-----5-----5(x8)--|  
A|-7(x8)--3------7(x8)--5(x8)--3(x8)-5(x8)-3------| 
E|-5-------------5------3------1-----3------------| 

e|-------------------------------------------------------------| 
B|-------------------------------------------------------------| 
G|--------5--------------------------------5-----x-x-x-x-x-x-x-| 
D|-7------5(x8)--7------5------3-----5-----5(x8)-x-x-x-x-x-x-x-|  
A|-7(x8)--3------7(x8)--5(x8)--3(x8)-5(x8)-3-----x-x-x-x-x-x-x-| 
E|-5-------------5------3------1-----3-------------------------| 

Final Chorus 
e|-----------------------------------------------------------------------------| 
B|-------------5-3-------------------5-3---------------------------------------| 
G|--------5--------5-2-0--------5--------5-2-0-------------19b-19-17-19b-19-17-| 
D|-3------5(x8)----------3------5(x8)----------3-----5-------------------------| 
A|-3(x16)-3--------------3(x16)-3--------------3(x8)-5(x8)---------------------| 
E|-1---------------------1---------------------1-----3-------------------------| 

e|-----------------------------------------| 
B|-----------------------------------------| 
G|--------5-------------5------------------| 
D|-3------5(x16)-3------5(x16)-3-----5-----| 
A|-3(x16)-3------3(x16)-3------3(x8)-5(x8)-| 
E|-1-------------1-------------1-----3-----| 

Outro  
(Tremelo pick) 
e|----------------------------| 
B|----------------------------| 
G|----------------------------| 
D|-7-----------------------19-| 
A|-7-----------------------19-| 
E|-5-----------------------17-| 


************************************ 

| /  Slide up 
| x  Dead note 
| b  Bend 
  

************************************ 
  

top 5 | the cribs
top punk rock
Outras músicas do artista letras do(a) The Cribs
Top cifras »Top artistas »
Petaxxon Comunicação Online
Cifras.com.br - Melhor e mais completo site de cifras e tablaturas do Brasil
Mais de 1 milhão de acordes de músicas cadastradas desde 2003
As informações contidas no nosso site são colaborações de seus usuários e podem conter erros, sendo assim, não nos responsabilizamos sobre nenhuma destas.
close
menos
mais
close
Cor dos acordes:

Cor da letra:

 

save
close
close
 
redimensionar