Cifras e Tablaturas
The Cribs

The Cribs

Year Of Hate

Cifras Cancelar Versão de Impressão
cifras

The Cribs - Year Of Hate

fixar na tela  
Exibindo: vídeo-aula ver clipes redimensionar

Tom:

   
Capo 5 

Intro 
e|--------3h5--------------| 
B|--------------------5----| 
G|--0h2--------0h2---------|   (x4) 
D|-------------------------| 
A|-------------------------| 
E|-------------------------| 

Chorus (x2) 
e|---------------------------------------------------------------------------| 
B|------------8--------8-----------8-----------8------------8--------8-------| 
G|------5-----------5--------5-----------5------------5-----------5----------| 
D|--s7-----7-----7--------7-----7-----7-----7------7-----7-----7-------------| 
A|---------------------------------------------------------------------------| 
E|---------------------------------------------------------------------------| 

Can also use the below notes instead of above which sounds just as good 
e|--------3--| 
B|-----1-----| 
G|--2--------| 
D|-----------| 
A|-----------| 
E|-----------| 

e|----------------------------------| 
B|----------------------------------| 
G|-------------7-7--5--4--5--4--5---|    (x2) 
D|--2--2--5-5-----------------------| 
A|----------------------------------| 
E|----------------------------------| 

Verse(x4) 
e|-----------------------------------------------------| 
B|----------------------------------5------------------| 
G|----------------------------0--2---------------------| 
D|-----2---------2--------5----------------------------| 
A|--3-----3---3-----3--3-------------------------------| 
E|-----------------------------------------------------| 

Break 
e|--------3h5--------------| 
B|--------------------5----| 
G|--0h2--------0h2---------|   (x4) 
D|-------------------------| 
A|-------------------------| 
E|-------------------------| 

Chorus (x2) 
e|---------------------------------------------------------------------------| 
B|------------8--------8-----------8-----------8------------8--------8-------| 
G|------5-----------5--------5-----------5------------5-----------5----------| 
D|--s7-----7-----7--------7-----7-----7-----7------7-----7-----7-------------| 
A|---------------------------------------------------------------------------| 
E|---------------------------------------------------------------------------| 

e|----------------------------------| 
B|----------------------------------| 
G|-------------7-7--5--4--5--4--5---|    (x2) 
D|--2--2--5-5-----------------------| 
A|----------------------------------| 
E|----------------------------------| 

Verse(x4) Plus extra bit 
e|-----------------------------------------------------| 
B|----------------------------------5------5-5-5-5-3---| 
G|----------------------------0--2--------------------5| 
D|-----2---------2--------5----------------------------| 
A|--3-----3---3-----3--3-------------------------------| 
E|-----------------------------------------------------| 

Break 
e|--------3h5--------------| 
B|--------------------5----| 
G|--0h2--------0h2---------|   (x4) 
D|-------------------------| 
A|-------------------------| 
E|-------------------------| 

Chorus (x2) 
e|---------------------------------------------------------------------------| 
B|------------8--------8-----------8-----------8------------8--------8-------| 
G|------5-----------5--------5-----------5------------5-----------5----------| 
D|--s7-----7-----7--------7-----7-----7-----7------7-----7-----7-------------| 
A|---------------------------------------------------------------------------| 
E|---------------------------------------------------------------------------| 

e|----------------------------------| 
B|----------------------------------| 
G|-------------7-7--5--4--5--4--5---|    (x2) 
D|--2--2--5-5-----------------------| 
A|----------------------------------| 
E|----------------------------------| 

Break 
e|------------------------| 
B|-10--------13-----------| 
G|-12b14-----15b17--------| 
D|------------------------| 
A|------------------------| 
E|------------------------| 

Outro 
e|--------3h5--------------| 
B|--------------------5----| 
G|--0h2--------0h2---------|   (x4) 
D|-------------------------| 
A|-------------------------| 
E|-------------------------| 

e|-------------------------------------------------------------| 
B|------------8----------8------------8-----------6------------| 
G|------5-----------5-----------5-----------4------------------| 
D|--s7-----7-----7----7------7-----7-----6-----6---------------| 
A|-------------------------------------------------------------| 
E|-------------------------------------------------------------| 
E|-------------------------------------------------------------| 

e|--------3h5--------------| 
B|--------------------5----| 
G|--0h2--------0h2---------|   (x4) 
D|-------------------------| 
A|-------------------------| 
E|-------------------------| 


************************************ 

| h  Hammer-on 
| b  Bend 

************************************ 
  

top 5 | the cribs
top punk rock
Outras músicas do artista letras do(a) The Cribs
Top cifras »Top artistas »
Petaxxon Comunicação Online
Cifras.com.br - Melhor e mais completo site de cifras e tablaturas do Brasil
Mais de 1 milhão de acordes de músicas cadastradas desde 2003
As informações contidas no nosso site são colaborações de seus usuários e podem conter erros, sendo assim, não nos responsabilizamos sobre nenhuma destas.
close
menos
mais
close
Cor dos acordes:

Cor da letra:

 

save
close
close
 
redimensionar