Cifras e Tablaturas
The Cult

The Cult

Outlaw

Cifras Cancelar Versão de Impressão
cifras

The Cult - Outlaw

fixar na tela  
Exibindo: vídeo-aula ver clipes redimensionar

Tom:

D

ver outros tons
  
   D               D               G               F 
|----------------------------------------------------------------| 
|----------------------------------------------------------------| 
|----------------------------------------------------------------| 
|7-X-X-X-X-X-X-X-7-X-X-X-X-X-X-X---------------------------------| 
|5-X-X-X-X-X-X-X-5-X-X-X-X-X-X-X-5-X-X-X-X-X-X-X-3-X-X-X-X-X-X-X-| 
|--------------------------------3-X-X-X-X-X-X-X-1-X-X-X-X-X-X-X-| 
|                                                                | 
|                                                                | 
|----------------------------------------------------------------| 
|----------------------------------------------------------------| 
|----------------------------------------------------------------| 
|-----3~-3~-----------3~-3~--------5*-5)H--5~----------3~--------| 
|3h4h5------5~---3h4h5------5~---3---------------0h3h5-----------| 
|----------------------------------------------------------------| 


   D                        G 
|--------------------------------------------------| 
|--------------------------------------------------| 
|--------------------------------------------------| 
|5-/7--5-/7---5/75/7-5-----------------------------| 
|3-/5--3-/5---3/53/5-3--3/5-53/5---3/53/5-3--------| 
|-------------------------1/3-31/3---1/31/3-1------| 


   D                        G 
|--------------------------------------------------| 
|----------------------------------------------5---| 
|----------------------------------------------4---| 
|5-/7--5-/7---5/75/7-5-----------------------3-----| 
|3-/5--3-/5---3/53/5-3--3/5-53/5---3--3-2---3------| 
|-------------------------1/3-31/3---1--1-0--------| 


   A                        D 
|--------------------------------------------------| 
|--------------------------------------------------| 
|--------------------------------------------------| 
|5-2-2---2---2---2----2---5-/7--5-/7---5/75/7-5----| 
|3-0-0-3-0---0-3-0-3~-0---3-/5--3-/5---3/53/5-3----| 
|--------------------------------------------------| 


   G                        D 
|--------------------------------------------------| 
|---------------------5---5------------------------| 
|---------------------4---4------------------------| 
|---------------------3---3--7-7-5/7--5/75/7-5-----| 
|3/5-53/5---3/53/5--3---3--5-5-3/5--3/53/5-3-------| 
|1/3-31/3---1/31/3---------------------------------| 


Play 2 times 

   D               D               G               F 
|----------------------------------------------------------------| 
|----------------------------------------------------------------| 
|----------------------------------------------------------------| 
|7-X-X-X-X-X-X-X-7-X-X-X-X-X-X-X---------------------------------| 
|5-X-X-X-X-X-X-X-5-X-X-X-X-X-X-X-5-X-X-X-X-X-X-X-3-X-X-X-X-X-X-X-| 
|--------------------------------3-X-X-X-X-X-X-X-1-X-X-X-X-X-X-X-| 
|                                                                | 
|                                                                | 
|----------------------------------------------------------------| 
|----------------------------------------------------------------| 
|----------------------------------------------------------------| 
|-----3~-3~-----------3~-3~--------5*-5)H--5~----------3~--------| 
|3h4h5------5~---3h4h5------5~---3---------------0h3h5-----------| 
|----------------------------------------------------------------| 


   D                        G 
|--------------------------------------------------| 
|--------------------------------------------------| 
|--------------------------------------------------| 
|5-/7--5-/7---5/75/7-5-----------------------------| 
|3-/5--3-/5---3/53/5-3--3/5-53/5---3/53/5-3--------| 
|-------------------------1/3-31/3---1/31/3-1------| 


   D                        G 
|--------------------------------------------------| 
|----------------------------------------------5---| 
|----------------------------------------------4---| 
|5-/7--5-/7---5/75/7-5-----------------------3-----| 
|3-/5--3-/5---3/53/5-3--3/5-53/5---3--3-2---3------| 
|-------------------------1/3-31/3---1--1-0--------| 


   A                        D 
|--------------------------------------------------| 
|--------------------------------------------------| 
|--------------------------------------------------| 
|5-2-2---2---2---2----2---5-/7--5-/7---5/75/7-5----| 
|3-0-0-3-0---0-3-0-3~-0---3-/5--3-/5---3/53/5-3----| 
|--------------------------------------------------| 


   G                        D 
|--------------------------------------------------| 
|---------------------5---5------------------------| 
|---------------------4---4------------------------| 
|---------------------3---3--7-7-5/7--5/75/7-5-----| 
|3/5-53/5---3/53/5--3---3--5-5-3/5--3/53/5-3-------| 
|1/3-31/3---1/31/3---------------------------------| 


Play 3 times 

   D               D               G               F 
|----------------------------------------------------------------| 
|----------------------------------------------------------------| 
|----------------------------------------------------------------| 
|7-X-X-X-X-X-X-X-7-X-X-X-X-X-X-X---------------------------------| 
|5-X-X-X-X-X-X-X-5-X-X-X-X-X-X-X-5-X-X-X-X-X-X-X-3-X-X-X-X-X-X-X-| 
|--------------------------------3-X-X-X-X-X-X-X-1-X-X-X-X-X-X-X-| 
|                                                                | 
|                                                                | 
|----------------------------------------------------------------| 
|----------------------------------------------------------------| 
|----------------------------------------------------------------| 
|-----3~-3~-----------3~-3~--------5*-5)H--5~----------3~--------| 
|3h4h5------5~---3h4h5------5~---3---------------0h3h5-----------| 
|----------------------------------------------------------------| 


Play 2 times 

   D               D               G 
|------------------------------------| 
|------------------------------------| 
|------------------------------------| 
|7-X-X-X-X-X-X-X-7-X-X-X-X-X-X-X-----| 
|5-X-X-X-X-X-X-X-5-X-X-X-X-X-X-X-5*--| 
|--------------------------------3*--| 
|                                    | 
|                                    | 
|------------------------------------| 
|------------------------------------| 
|------------------------------------| 
|-----3~-3~-----------3~-3~----------| 
|3h4h5------5~---3h4h5------5~---5*--| 
|--------------------------------3*--| 


*SOLO*------>solo riff not included yet.  Will tab asap. 


Play 2 times 

   F                        F 
|-----------------------------------------------| 
|-----------------------------------------------| 
|-----------------------------------------------| 
|-----------------------------------------------| 
|3/5-53/5---3/53/5-3---3/5-53/5---3/53/5-3------| 
|1/3-31/3---1/31/3-1---1/3-31/3---1/31/3-1------| 


   C                        C 
|-----------------------------------------------| 
|-----------------------------------------------| 
|-----------------------------------------------| 
|3/5-53/5---3/53/5-3---3/5-53/5---3/53/5-3------| 
|1/3-31/3---1/31/3-1---1/3-31/3---1/31/3-1------| 
|-----------------------------------------------| 


   F                        F 
|-----------------------------------------------| 
|-----------------------------------------------| 
|-----------------------------------------------| 
|-----------------------------------------------| 
|3/5-53/5---3/53/5-3---3/5-53/5---3/53/5-3------| 
|1/3-31/3---1/31/3-1---1/3-31/3---1/31/3-1------| 


|--------------------------------------------------| 
|------------------------------------------5-------| 
|------------------------------------------4--5----| 
|2-----------------------------------------3--5----| 
|2-X-X-X-X-X-X-X-X-X-X-X-X-X-X-X-3-4-5-----3--3----| 
|0-X-X-X-X-X-X-X-X-X-X-X-X-X-X-X-1-2-3-------------| 


   A                        D 
|--------------------------------------------------| 
|--------------------------------------------------| 
|--------------------------------------------------| 
|5-2-2---2---2---2----2---5-/7--5-/7---5/75/7-5----| 
|3-0-0-3-0---0-3-0-3~-0---3-/5--3-/5---3/53/5-3----| 
|--------------------------------------------------| 


   G                        D 
|--------------------------------------------------| 
|---------------------5---5------------------------| 
|---------------------4---4------------------------| 
|---------------------3---3--7-7-5/7--5/75/7-5-----| 
|3/5-53/5---3/53/5--3---3--5-5-3/5--3/53/5-3-------| 
|1/3-31/3---1/31/3---------------------------------| 


Play # times 

   D               D               G               F 
|----------------------------------------------------------------| 
|----------------------------------------------------------------| 
|----------------------------------------------------------------| 
|7-X-X-X-X-X-X-X-7-X-X-X-X-X-X-X---------------------------------| 
|5-X-X-X-X-X-X-X-5-X-X-X-X-X-X-X-5-X-X-X-X-X-X-X-3-X-X-X-X-X-X-X-| 
|--------------------------------3-X-X-X-X-X-X-X-1-X-X-X-X-X-X-X-| 
|                                                                | 
|                                                                | 
|----------------------------------------------------------------| 
|----------------------------------------------------------------| 
|----------------------------------------------------------------| 
|-----3~-3~-----------3~-3~--------5*-5)H--5~----------3~--------| 
|3h4h5------5~---3h4h5------5~---3---------------0h3h5-----------| 
|----------------------------------------------------------------| 


   D               D               G               F 
|----------------------------------------------------------------| 
|----------------------------------------------------------------| 
|----------------------------------------------------------------| 
|7-X-X-X-X-X-X-X-7-X-X-X-X-X-X-X---------------------------------| 
|5-X-X-X-X-X-X-X-5-X-X-X-X-X-X-X-5*--------------3*--------------| 
|--------------------------------3*--------------1*--------------| 
|                                                                | 
|                                                                | 
|----------------------------------------------------------------| 
|----------------------------------------------------------------| 
|----------------------------------------------------------------| 
|-----3~-3~-----------3~-3~--------------------------------------| 
|3h4h5------5~---3h4h5------5~-----------------------------------| 
|----------------------------------------------------------------| 
  

cifra enviadasem correções
enviado porenviada por:terr_schmitz
top 5 | the cult
top rock'n roll
Outras músicas do artista letras do(a) The Cult
Top cifras »Top artistas »
Petaxxon Comunicação Online
Cifras.com.br - Melhor e mais completo site de cifras e tablaturas do Brasil
Mais de 1 milhão de acordes de músicas cadastradas desde 2003
As informações contidas no nosso site são colaborações de seus usuários e podem conter erros, sendo assim, não nos responsabilizamos sobre nenhuma destas.
close
menos
mais
close
Cor dos acordes:

Cor da letra:

 

save
close
close
 
redimensionar