Cifras e Tablaturas
The Cult

The Cult

She Sells Sanctuary Tablatura Verificada

Compositor : (Billy Duffy / Ian Astbury)

Cifras Cancelar Versão de Impressão
cifras

The Cult - She Sells Sanctuary

fixar na tela  
Exibindo: vídeo-aula ver clipes redimensionar

Tom:

  
Intro: 

e|------------------------------------------------------| 
B|--10--10----------------------------------------------| 
G|---------12--12-11--11--------------------------------| 
D|-----------------------12--12--10--10-10h12--12-12----| 
A|-0-------------------------------------------------12-| 
E|------------------------------------------------------| 

e|--------------------------------------------------------------------| 
B|--------------------------------------------------------------------| 
G|-14-14-14--12-12-12-11-11-12\11\7-7-7-7-5-5-5-7-7-7-----12\11-7-7-7-| 
D|-----------------------------------------------------7--------------| 
A|-12-12-12--10-10-10--9--9-10\-9\5-5-7-7-3-3-3-5-5-5-----10\-9\5-5-5-| 
E|-----------------------------------------------------5--------------|  

e|-------------------------------------------------------------------| 
B|-------------------------------------------------------------------| 
G|-14-14-14--12-12-12-11-11-12\11\7-7-7-7-5-5-5-7-7-7-----12\11-7-7--| 
D|-----------------------------------------------------7-------------| 
A|-12-12-12--10-10-10--9--9-10\-9\5-5-7-7-3-3-3-5-5-5-----10\-9\5-5--| 
E|-----------------------------------------------------5-------------| 

Verse : D5 C5 G5 

e|------------------------------------------| 
B|------------------------------------------| 
G|-7-------7-------7-------7-------7----7---| 
D|-7-------7-------7-------7-------7----7---| 
A|-5--5-5--5--5-5--5--5-5--5--5-5--5-5--5-5-| 
E|------------------------------------------| 

e|-------------------------------------------| 
B|-----------------------8--------8----8-----| 
G|-----------------------7--------7----7-----| 
D|-5-------5-------5-----5---5-5--5-5--5--5--| 
A|-3--3-3--3--3-3--3--3----------------------| 
E|-------------------------------------------| 

e|------------------------------------------| 
B|------------------------------------------| 
G|-7-------7-------7-------7-------7----7---| 
D|-7-------7-------7-------7-------7----7---| 
A|-5--5-5--5--5-5--5--5-5--5--5-5--5-5--5-5-| 
E|------------------------------------------| 

e|-------------------------------------------| 
B|-----------------------8--------8----8-----| 
G|-----------------------7--------7----7-----| 
D|-5-------5-------5-----5---5-5--5-5--5--5--| 
A|-3--3-3--3--3-3--3--3----------------------| 
E|-------------------------------------------| 

e|------------------------------------------------| 
B|-10-10-10-10-10-10-10-10-10-10\12-10-10-10-10\8-| 
G|------------------------------------------------| 
D|--7--7--7--7--7--7--7--7--7--7\-9--7--7--7--7\5-| 
A|------------------------------------------------| 
E|------------------------------------------------| 

e|-------------------------------------------------------------| 
B|-8-8-8-8-8-8-8\7--7-7-7-7-7/8--8--10-10-10-10-10-10-10-10-10-| 
G|-------------------------------------------------------------| 
D|-5-5-5-5-5-5-5\4--4-4-4-4-4/5--8---7--7--7--7--7--7--7--7--7-| 
A|-------------------------------------------------------------| 
E|-------------------------------------------------------------| 

e|----------------------------------------------------| 
B|----12-10-10-10-10\8-8-8-8\7--7-7-7\5--5-5-5/7-7--7-| 
G|----------------------------------------------------| 
D|-----9--7--7--7--7/5-5-5-5\4--4-4-4\2--2-2-2/4-4--4-| 
A|----------------------------------------------------| 
E|----------------------------------------------------| 

Chorus: 

e|--------------------------------------------| 
B|--------------------------------------------| 
G|-7-------7-------7-----7-------7-------7----| 
D|--------------------------------------------| 
A|-5--5-5--5--5-5--5--5--5--5-5--5--5-5--5--5-| 
E|--------------------------------------------| 

e|-----------------------3--------3----3--3-| 
B|-----------------------3--------3----3--3-| 
G|-5-------5-------5--5--0--------0----0--0-| 
D|-----------------------0--------0----0--0-| 
A|-3--3-3--3--3-3--3--3---------------------| 
E|-----------------------3---3-3--3-3--3--3-| 

e|--------------------------------------------| 
B|--------------------------------------------| 
G|-7-------7-------7-----7-------7-------7----| 
D|--------------------------------------------| 
A|-5--5-5--5--5-5--5--5--5--5-5--5--5-5--5--5-| 
E|--------------------------------------------| 

e|-----------------------3--------3----3--3-| 
B|-----------------------3--------3----3--3-| 
G|-5-------5-------5--5--0--------0----0--0-| 
D|-----------------------0--------0----0--0-| 
A|-3--3-3--3--3-3--3--3---------------------| 
E|-----------------------3---3-3--3-3--3--3-| 


Interlude: 


e|-----------------------------------------| 
B|-10--7--8-10--8--7----10--7--8-10--8--4--| 
G|--7--7--7--7--7--7-----7--7--7--7--7--7--| 
D|-----------------------------------------| 
A|-----------------------------------------| 
E|-----------------------------------------| 

e|------------------------------------------| 
B|-10--7--8-10--8--7---10--7--8-10--8--7----| 
G|--7--7--7--7--7--7----7--7--7--7--7--7--7-| 
D|----------------------------------------7-| 
A|------------------------------------------| 
E|------------------------------------------| 

End Riff: 

e|---------------------------------------| 
B|-10------------------------------------| 
G|-----12--11----------------------------| 
D|-------------12-10h12-10h12-10h12------| 
A|------------------------------------12-| 
E|---------------------------------------| 

e|--------------------------------------------------------| 
B|-10-----------------------------------------------------| 
G|-----12--1--12p11------------------------12p11----14-12-| 
D|------------------12-12--12-10---12------------12-------| 
A|--------------------------------------12----------------| 
E|--------------------------------------------------------| 

e|-----------------------------------------------| 
B|-10--10----------------------------------------| 
G|--------12--12-11--11--------------------------| 
D|----------------------12--12--10--10--10h12----| 
A|--------------------------------------------12-| 
E|-----------------------------------------------| 


  

cifra enviadacorrigido por:Acelot
enviado poranônimo
top 5 | the cult
top rock'n roll
Outras músicas do artista letras do(a) The Cult
Top cifras »Top artistas »
Petaxxon Comunicação Online
Cifras.com.br - Melhor e mais completo site de cifras e tablaturas do Brasil
Mais de 1 milhão de acordes de músicas cadastradas desde 2003
As informações contidas no nosso site são colaborações de seus usuários e podem conter erros, sendo assim, não nos responsabilizamos sobre nenhuma destas.
close
menos
mais
close
Cor dos acordes:

Cor da letra:

 

save
close
close
 
redimensionar