Cifras e Tablaturas
The Eagles UK Band

The Eagles UK Band

Bristol Express

Cifras Cancelar Versão de Impressão
cifras

The Eagles UK Band - Bristol Express

fixar na tela  
Exibindo: vídeo-aula ver clipes redimensionar
  
Intro (0:10) 

e--15-15--| 
b--15-15--| 
g--16-16--| 
d--17-17--| 
a---------| 
e---------| 



Verse (0:13) 

e---------------------------------|-------------------------------| 
b---------------------------------|-------------------------------| 
g---------------------------------|-------------------------------| 
d-----7-8----7-8--------7-8----7--|--7-8-10-7-8-10-7--7-8-10-7-8--| 
a--10-----10-----10--10-----10----|-------------------------------| 
e---------------------------------|-------------------------------| 

e------------------------------------|------------------------------------| 
b------------------------------------|------------------------------------| 
g------------------------------------|------------------------------------| 
d-----7-8----7-8--------7-8-8/10-----|--7-8-10-7-----7-8----------7-------| 
a--10-----10-----10--10----------10--|------------10-----10--9-10---9-10--| 
e------------------------------------|------------------------------------| 



Chorus (0:39) 

e-----------------|---------------|-------------------------|----------------------| 
b-----------------|---------------|-------------------------|----------------------| 
g-----8-----------|----7----------|----5--------------------|----------------------| 
d-------7-8-10-7--|------5-7-8-5--|------7-8-10-7-12-12-12--|----------------------| 
a--10-------------|--8------------|--6----------------------|--8-8-10-10-12-12-10--| 
e-----------------|---------------|-------------------------|----------------------| 

e-----------------|---------------|-------------------------| 
b-----------------|---------------|-------------------------| 
g-----8-----------|----7----------|----5--------------------| 
d-------7-8-10-7--|------5-7-8-5--|------7-8-10-7-12-12-12--| 
a--10-------------|--8------------|--6----------------------| 
e-----------------|---------------|-------------------------| 



Bridge (1:05) 

G G Eb  
G# G# Em 



Verse (1:19) 

e------------------------------------|----------------------------------| 
b------------------------------------|----------------------------------| 
g------------------------------------|----------------------------------| 
d-----9-10----9-10--------9-10----9--|-9-10-12-9-10-12-9--9-10-12-9-10--| 
a--12-----12------12--12-------12----|----------------------------------| 
e------------------------------------|----------------------------------| 

e---------------------------------------|---------------------------------------| 
b---------------------------------------|---------------------------------------| 
g---------------------------------------|---------------------------------------| 
d-----9-10----9-10--------9-10-10/12----|--9-10-12-9-----9-10----------9--------| 
a--12-----12-----12--12-------------12--|------------12------12--11-12---11-12--| 
e---------------------------------------|---------------------------------------| 



Chorus (1:44) 

e-----13--------------|-----12-------------|------10-------------12-12-12--|------------------------| 
b--------12-13-15-12--|-------10-12-13-10--|--------12-13-15-12------------|------------------------| 
g--13-----------------|--12----------------|--10---------------------------|--12-12-14-14-16-16-14--| 
d---------------------|--------------------|-------------------------------|------------------------| 
a---------------------|--------------------|-------------------------------|------------------------| 
e---------------------|--------------------|-------------------------------|------------------------| 

e-----13--------------|-----12-------------|-----10-------------12-12-12--| 
b--------12-13-15-12--|-------10-12-13-10--|--------12-13-15-12-----------| 
g--13-----------------|--12----------------|--10--------------------------| 
d---------------------|--------------------|------------------------------| 
a---------------------|--------------------|------------------------------| 
e---------------------|--------------------|------------------------------| 



Bridge (2:10) 

e--17----15--|--17----17--|--16----14--|--16----16--|--15----13--| 
b-----17-----|-----17-----|-----16-----|-----16-----|-----15-----| 
g------------|------------|------------|------------|------------| 
d------------|------------|------------|------------|------------| 
a------------|------------|------------|------------|------------| 
e------------|------------|------------|------------|------------| 
           x3                        x3                        x3 

e---------------------|---------------------| 
b---------------------|---------------------| 
g--10/12-15-12--------|--10/12-15-12--------| 
d--------------15-12--|--------------15-12--| 
a---------------------|---------------------| 
e---------------------|---------------------| 



Verse (2:22) 

e---------------------------------|-------------------------------| 
b---------------------------------|-------------------------------| 
g---------------------------------|-------------------------------| 
d-----7-8----7-8--------7-8----7--|--7-8-10-7-8-10-7--7-8-10-7-8--| 
a--10-----10-----10--10-----10----|-------------------------------| 
e---------------------------------|-------------------------------| 

e--15-17-18-15-17-18-15--15-17-18-18/20-15--|--17-18-20-17--15-17-18-17--14-15-17-14-15--| 
b-------------------------------------------|--------------------------------------------| 
g-------------------------------------------|--------------------------------------------| 
d-------------------------------------------|--------------------------------------------| 
a-------------------------------------------|--------------------------------------------| 
e-------------------------------------------|--------------------------------------------| 



Outro (2:46) 

e--15----13--| 
b-----15-----| 
g------------| 
d------------| 
a------------| 
e------------| 
           x8 



End (2:52) 

e--15--| 
b--15--| 
g--16--| 
d--17--| 
a------| 
e------| 
  

cifra enviadasem correções
enviado porenviada por:jessgomes
top 5 | the eagles uk band
top rock'n roll
Outras músicas do artista letras do(a) The Eagles UK Band
Top cifras »Top artistas »
Petaxxon Comunicação Online
Cifras.com.br - Melhor e mais completo site de cifras e tablaturas do Brasil
Mais de 1 milhão de acordes de músicas cadastradas desde 2003
As informações contidas no nosso site são colaborações de seus usuários e podem conter erros, sendo assim, não nos responsabilizamos sobre nenhuma destas.
close
menos
mais
close
Cor dos acordes:

Cor da letra:

 

save
close
close
 
redimensionar