Cifras e Tablaturas
The Fashions

The Fashions

Baby Thats Me

Cifras Cancelar Versão de Impressão

The Fashions - Baby Thats Me

Tom:

  			G|----------------------------------------------------------------| 
D|----------------7-------------------------------7---------------| x3 
A|5-----------5-------------------5-----------5-------------------| 
E|----------------------------5---------------------------5-------| 

0:13 

G|----------------------------------------------------------------| 
D|----------------7-------------------------------7---------------| 
A|5-----------5-------------------5-----------5-------------------| 
E|----------------------------5---------------------------5-------| 

G|----------------------------------------------------------------| 
D|----------------7-------------------------------7---------------| 
A|5-----------5-------------------5-----------5-----------5-------| 
E|----------------------------5-----------------------------------| 

G|----------------7-------------------------------7---------------| 
D|5-----------5-------------------5-----------5-----------5-------| 
A|----------------------------5-----------------------------------| 
E|----------------------------------------------------------------| 

G|----------------------------------------------------------------| 
D|----------------7-------------------------------7---------------| 
A|5-----------5-------------------5-----------5-----------5-------| 
E|----------------------------5-----------------------------------| 

G|----------------------------------------------------------------| 
D|7-----------7---7-----------7---5-----------5---5-------5-------| 
A|----------------------------------------------------------------| 
E|----------------------------------------------------------------| 

G|----------------------------------------------------------------| 
D|7-----------7---7-------7---------------------------------------| 
A|----------------------------------------------------2---4-------| 
E|----------------------------------------5---5-------------------| 

0:38 

G|----------------------------------------------------------------| 
D|----------------7-----------7-----------------------2-----------| 
A|5-----------5-------------------5-----------5-----------5---4---| 
E|----------------------------------------------------------------| 

G|----------------------------------------------------------------| 
D|----------------4-----------4-----------------------------------| 
A|2-----------2-------------------2-----------2-------4---2-------| 
E|------------------------------------------------------------5---| 

G|----------------------------------------------------------------| 
D|--------------------------------5-----------5-------4---5---6---| 
A|----------------5-----------5-----------------------------------| 
E|3-----------3---------------------------------------------------| 

G|----------------------------------------------------------------| 
D|7-----------7-------------------7-------------------------------| 
A|----------------7-----------7-------------------------2-----4---| 
E|------------------------------------------------5---------------| 

0:54 

G|----------------------------------------------------------------| 
D|----------------7-------------------------------7---------------| 
A|5-----------5-------------------5-----------5-------------------| 
E|----------------------------5---------------------------5-------| 

G|----------------------------------------------------------------| 
D|----------------7-------------------------------7---------------| 
A|5-----------5-------------------5-----------5-----------5-------| 
E|----------------------------5-----------------------------------| 

G|----------------7-------------------------------7---------------| 
D|5-----------5-------------------5-----------5-----------5-------| 
A|----------------------------5-----------------------------------| 
E|----------------------------------------------------------------| 

G|----------------------------------------------------------------| 
D|----------------7-------------------------------7---------------| 
A|5-----------5-------------------5-----------5-----------5-------| 
E|----------------------------5-----------------------------------| 

G|----------------------------------------------------------------| 
D|7-----------7---7-----------7---5-----------5---5-------5-------| 
A|----------------------------------------------------------------| 
E|----------------------------------------------------------------| 

G|----------------------------------------------------------------| 
D|7-----------7---7-------7---------------------------------------| 
A|----------------------------------------------------2---4-------| 
E|----------------------------------------5---5-------------------| 

1:18 

G|----------------------------------------------------------------| 
D|----------------7-----------7-----------------------2-----------| 
A|5-----------5-------------------5-----------5-----------5---4---| 
E|----------------------------------------------------------------| 

G|----------------------------------------------------------------| 
D|----------------4-----------4-----------------------------------| 
A|2-----------2-------------------2-----------2-------4---2-------| 
E|------------------------------------------------------------5---| 

G|----------------------------------------------------------------| 
D|--------------------------------5-----------5-------4---5---6---| 
A|----------------5-----------5-----------------------------------| 
E|3-----------3---------------------------------------------------| 

G|----------------------------------------------------------------| 
D|7-----------7-------------------7-------------------------------| 
A|----------------7-----------7-------------------2---------------| 
E|----------------------------------------5-----------------------| 

1:34 

G|----------------------------------------------------------------| 
D|----------------7-----------7-------------------7---------------| 
A|5-----------5-------------------5-----------5-------------------| 
E|--------------------------------------------------------5-------| 

G|----------------------------------------------------------------| 
D|----------------7-------------------------------7---------------| 
A|5-----------5-------------------5-----------5-----------5-------| 
E|----------------------------5-----------------------------------| 

G|----------------7-------------------------------7---------------| 
D|5-----------5-------------------5-----------5-----------5-------| 
A|----------------------------5-----------------------------------| 
E|----------------------------------------------------------------| 

G|----------------------------------------------------------------| 
D|----------------7-----------------------------------------------| 
A|5-----------5-------------------5---------------5-----4-----2---| 
E|----------------------------5-----------------------------------| 

G|----------------------------------------------------------------| 
D|------------7---7-----------7---5-----------5---5-------5-------| 
A|----------------------------------------------------------------| 
E|5---------------------------------------------------------------| 

G|----------------------------------------------------------------| 
D|7-----------7---7-------7---------------------------------------| 
A|----------------------------------------------------2---4-------| 
E|----------------------------------------5---5-------------------| 

1:58 

G|----------------------------------------------------------------| 
D|----------------7-----------7-----------------------2-----------| 
A|5-----------5-------------------5-----------5-----------5---4---| 
E|----------------------------------------------------------------| 

G|----------------------------------------------------------------| 
D|----------------4-----------4-----------------------------------| 
A|2-----------2-------------------2-----------2-------4---2-------| 
E|------------------------------------------------------------5---| 

G|----------------------------------------------------------------| 
D|--------------------------------5-----------5-------4---5---6---| 
A|----------------5-----------5-----------------------------------| 
E|3-----------3---------------------------------------------------| 

G|----------------------------------------------------------------| 
D|7-----------7-------------------7-------------------------------| 
A|----------------7-----------7-------------------2-------4-------| 
E|----------------------------------------5-----------------------| 

2:14 

G|----------------------------------------------------------------| 
D|----------------7-----------7-----------------------2-----------| 
A|5-----------5-------------------5-----------5-----------5---4---| 
E|----------------------------------------------------------------| 

G|----------------------------------------------------------------| 
D|----------------4-----------4-----------------------------------| 
A|2-----------2-------------------2-----------2-------4---2-------| 
E|------------------------------------------------------------5---| 

G|----------------------------------------------------------------| 
D|--------------------------------5-----------5-------4---5---6---| 
A|----------------5-----------5-----------------------------------| 
E|3---------------------------------------------------------------| 

G|--------------------| 
D|7-----------7-------| fades out here. 
A|----------------7---| 
E|--------------------| 
    	
fixar
fixar inscrever-se

enviado porenviado por: jov-correa
cifra enviadaCorrigida por: sem correções
logo top cifrasComente
ico música do artistaMúsicas deste artista
ico curtiuCurtiu?
ico destaqueDestaque
Petaxxon Comunicação Online

Cifras.com.br - Melhor e mais completo site de cifras e tablaturas do Brasil Mais de 1 milhão de acordes de músicas cadastradas desde 2003
As informações contidas no nosso site são colaborações de seus usuários e podem conter erros, sendo assim, não nos responsabilizamos sobre nenhuma destas.

close
menos
mais
close
Cor dos acordes:

Cor da letra:

close
Alinhar acordes a direita Alinhar acordes a esquerda Alinhar acordes em baixo Alinhar acordes no topo
close
  Mostrar todos os acordes Esconder acordes muito fáceis Esconder acordes fáceis Esconder acordes intermediários
redimensionar
glossário