Cifras e Tablaturas
The Federal Empire

The Federal Empire

The American Dream

Cifras Cancelar Versão de Impressão
cifras

The Federal Empire - The American Dream

fixar na tela  
Exibindo: vídeo-aula ver clipes redimensionar
  
Intro 
Guitar 1/2: 
E||--------------------------------------------------------| 
B||-----2------2-----0------0-----7------7-----2------2----| 
G||-----2------2-----1------1-----7------7-----2------2----| 
D||--------------------------------------------------------| 
A||--------------------------------------------------------| 
E||--2------------0------------7------------2--------------| 


E||--------------------------------------------------------| 
B||-----2------2-----0------0-----7------7-----2------0h2--| 
G||-----2------2-----1------1-----7------7-----2------2----| 
D||--------------------------------------------------------| 
A||--------------------------------------------------------| 
E||--2------------0------------7------------2--------------| 



Verse 
Guitar 1/2: 
E||--------------------------------------------------------| 
B||-----2------2-----0------0-----7------7-----2------2----| 
G||-----2------2-----1------1-----7------7-----2------2----| 
D||--------------------------------------------------------| 
A||--------------------------------------------------------| 
E||--2------------0------------7------------2--------------| 


E||--------------------------------------------------------| 
B||-----2------2-----0------0-----7------7-----2------0h2--| 
G||-----2------2-----1------1-----7------7-----2------2----| 
D||--------------------------------------------------------| 
A||--------------------------------------------------------| 
E||--2------------0------------7------------2--------------| 


E||--------------------------------------------------------| 
B||-----2------2-----0------0-----7------7-----2------2----| 
G||-----2------2-----1------1-----7------7-----2------2----| 
D||--------------------------------------------------------| 
A||--------------------------------------------------------| 
E||--2------------0------------7------------2--------------| 


E||--------------------------------------------------------| 
B||-----2------2-----0------0-----7------7-----2------2----| 
G||-----2------2-----1------1-----7------7-----2------2----| 
D||--------------------------------------------------------| 
A||--------------------------------------------------------| 
E||--2------------0------------7------------2--------------| 



Pre-Chorus 
Guitar 1: 
E||--------------------------------------------------------| 
B||-----2------2-----0------0-----7------7-----2------2----| 
G||-----2------2-----1------1-----7------7-----2------2----| 
D||--------------------------------------------------------| 
A||--------------------------------------------------------| 
E||--2------------0------------7------------2--------------| 


E||-----------------------------------------| 
B||-----2------2-----0------0-----7------7--| 
G||-----2------2-----1------1-----7------7--| 
D||-----------------------------------------| 
A||-----------------------------------------| 
E||--2------------0------------7------------| 


Guitar 2: 
E||---------------------------------------------------------| 
B||---------------------------------------------------------| 
G||---------------------------------------------------------| 
D||--7-9---7-9-7-9---7---7--------7-9---7-9b11---9---7---7--| 
A||---------------------------------------------------------| 
E||---------------------------------------------------------| 


E||----------------------------------------| 
B||----------------------------------------| 
G||----------------------------------------| 
D||--7-9---7-9-7-9---7---7--------7-9---7--| 
A||----------------------------------------| 
E||----------------------------------------| 



Chorus 
Guitar 1: 
E||--------------------------------------------------------| 
B||-----2------2-----0------0-----7------7-----2------2----| 
G||-----2------2-----1------1-----7------7-----2------2----| 
D||--------------------------------------------------------| 
A||--------------------------------------------------------| 
E||--2------------0------------7------------2--------------| 


E||--------------------------------------------------------| 
B||-----2------2-----0------0-----7------7-----2------2----| 
G||-----2------2-----1------1-----7------7-----2------2----| 
D||--------------------------------------------------------| 
A||--------------------------------------------------------| 
E||--2------------0------------7------------2--------------| 


E||--------------------------------------------------------| 
B||-----2------2-----0------0-----7------7-----2------2----| 
G||-----2------2-----1------1-----7------7-----2------2----| 
D||--------------------------------------------------------| 
A||--------------------------------------------------------| 
E||--2------------0------------7------------2--------------| 


E||--------------------------------------------------------| 
B||-----2------2-----0------0-----7------7-----2------2----| 
G||-----2------2-----1------1-----7------7-----2------2----| 
D||--------------------------------------------------------| 
A||--------------------------------------------------------| 
E||--2------------0------------7------------2--------------| 


Guitar 2: 
E||--------17--------17------------------------------|--------17--------17----------------------------| 
B||-----14--------14--------14-----------------------|-----14--------14--------14---------------------| 
G||--16--------16--------16----16-14-------16-14-----|--16--------16--------16----16-14---------------| 
D||----------------------------------16----------16--|----------------------------------16--14--16----| x4 
A||--------------------------------------------------|------------------------------------------------| 
E||--------------------------------------------------|------------------------------------------------| 



Verse 
Guitar 1/2: 
E||--------------------------------------------------------| 
B||-----2------2-----0------0-----7------7-----2------2----| 
G||-----2------2-----1------1-----7------7-----2------2----| 
D||--------------------------------------------------------| 
A||--------------------------------------------------------| 
E||--2------------0------------7------------2--------------| 


E||--------------------------------------------------------| 
B||-----2------2-----0------0-----7------7-----2------0h2--| 
G||-----2------2-----1------1-----7------7-----2------2----| 
D||--------------------------------------------------------| 
A||--------------------------------------------------------| 
E||--2------------0------------7------------2--------------| 


E||--------------------------------------------------------| 
B||-----2------2-----0------0-----7------7-----2------2----| 
G||-----2------2-----1------1-----7------7-----2------2----| 
D||--------------------------------------------------------| 
A||--------------------------------------------------------| 
E||--2------------0------------7------------2--------------| 


E||--------------------------------------------------------| 
B||-----2------2-----0------0-----7------7-----2------2----| 
G||-----2------2-----1------1-----7------7-----2------2----| 
D||--------------------------------------------------------| 
A||--------------------------------------------------------| 
E||--2------------0------------7------------2--------------| 



Pre-Chorus 
Guitar 1: 
E||--------------------------------------------------------| 
B||-----2------2-----0------0-----7------7-----2------2----| 
G||-----2------2-----1------1-----7------7-----2------2----| 
D||--------------------------------------------------------| 
A||--------------------------------------------------------| 
E||--2------------0------------7------------2--------------| 


E||-----------------------------------------| 
B||-----2------2-----0------0-----7------7--| 
G||-----2------2-----1------1-----7------7--| 
D||-----------------------------------------| 
A||-----------------------------------------| 
E||--2------------0------------7------------| 


Guitar 2: 
E||---------------------------------------------------------| 
B||---------------------------------------------------------| 
G||---------------------------------------------------------| 
D||--7-9---7-9-7-9---7---7--------7-9---7-9b11---9---7---7--| 
A||---------------------------------------------------------| 
E||---------------------------------------------------------| 


E||----------------------------------------| 
B||----------------------------------------| 
G||----------------------------------------| 
D||--7-9---7-9-7-9---7---7--------7-9---7--| 
A||----------------------------------------| 
E||----------------------------------------| 



Chorus 
Guitar 1: 
E||--------------------------------------------------------| 
B||-----2------2-----0------0-----7------7-----2------2----| 
G||-----2------2-----1------1-----7------7-----2------2----| 
D||--------------------------------------------------------| 
A||--------------------------------------------------------| 
E||--2------------0------------7------------2--------------| 


E||--------------------------------------------------------| 
B||-----2------2-----0------0-----7------7-----2------2----| 
G||-----2------2-----1------1-----7------7-----2------2----| 
D||--------------------------------------------------------| 
A||--------------------------------------------------------| 
E||--2------------0------------7------------2--------------| 


E||--------------------------------------------------------| 
B||-----2------2-----0------0-----7------7-----2------2----| 
G||-----2------2-----1------1-----7------7-----2------2----| 
D||--------------------------------------------------------| 
A||--------------------------------------------------------| 
E||--2------------0------------7------------2--------------| 


E||--------------------------------------------------------| 
B||-----2------2-----0------0-----7------7-----2------2----| 
G||-----2------2-----1------1-----7------7-----2------2----| 
D||--------------------------------------------------------| 
A||--------------------------------------------------------| 
E||--2------------0------------7------------2--------------| 


Guitar 2: 
E||--------17--------17------------------------------|--------17--------17----------------------------| 
B||-----14--------14--------14-----------------------|-----14--------14--------14---------------------| 
G||--16--------16--------16----16-14-------16-14-----|--16--------16--------16----16-14---------------| 
D||----------------------------------16----------16--|----------------------------------16--14--16----| x4 
A||--------------------------------------------------|------------------------------------------------| 
E||--------------------------------------------------|------------------------------------------------| 



Bridge 
Guitar 1/2: 
E||------------------------------------------------------| 
B||--10-----10~-----9-----9~-----7-----7~-----10-----10--| 
G||--11-----11~-----9-----9~-----6-----6~-----11-----11--| 
D||--11-----11~-----9-----9~-----7-----7~-----11-----11--| x2 
A||------------------------------------------------------| 
E||------------------------------------------------------| 


E||-----------------------------------------------| 
B||--10-----10~-----9-----9~-----7-----7~-----9~--| 
G||--11-----11~-----9-----9~-----6-----6~-----9~--| 
D||--11-----11~-----9-----9~-----7-----7~-----9~--| 
A||-----------------------------------------------| 
E||-----------------------------------------------| 



Interlude 
Guitar 1: 
E||--------------------------------------------------|--------------------------------------------------| 
B||-----------7~-------------------------------------|-----------7~-------------------------------------| 
G||-----------6~-------------------------------------|-----------6~-------------------------------------| 
D||-----------7~-------------------------------------|-----------7~-------------------------------------| 
A||--------------------------------------------------|--------------------------------------------------| 
E||--------------------------------------------------|--------------------------------------------------| 


E||--------------------------------------------------|-----------------------------| 
B||-----------7~-------------------------------------|-----------7~----------------| 
G||-----------6~-------------------------------------|-----------6~----------------| 
D||-----------7~-------------------------------------|-----------7~----------------| 
A||--------------------------------------------------|-----------------------------| 
E||--------------------------------------------------|-----------------------------| 


Guitar 2: 
E||--------------------------------------------------|--------------------------------------------------| 
B||-----14--------14--------14-----------------------|-----14--------14--------14-----------------------| 
G||--16--------16--------16----16-14-----------------|--16--------16--------16----16-14-----------------| 
D||----------------------------------16----------16--|----------------------------------16----------16--| 
A||--------------------------------------------------|--------------------------------------------------| 
E||--------------------------------------------------|--------------------------------------------------| 


E||--------------------------------------------------|-----------------------------| 
B||-----14--------14--------14-----------------------|-----14--------14--------14--| 
G||--16--------16--------16----16-14-----------------|--16--------16--------16-----| 
D||----------------------------------16----------16--|-----------------------------| 
A||--------------------------------------------------|-----------------------------| 
E||--------------------------------------------------|-----------------------------| 



Chorus / Outro 
Guitar 1: 
E||--------------------------------------------------------| 
B||-----2------2-----0------0-----7------7-----2------2----| 
G||-----2------2-----1------1-----7------7-----2------2----| 
D||--------------------------------------------------------| 
A||--------------------------------------------------------| 
E||--2------------0------------7------------2--------------| 


E||--------------------------------------------------------| 
B||-----2------2-----0------0-----7------7-----2------2----| 
G||-----2------2-----1------1-----7------7-----2------2----| 
D||--------------------------------------------------------| 
A||--------------------------------------------------------| 
E||--2------------0------------7------------2--------------| 


E||--------------------------------------------------------| 
B||-----2------2-----0------0-----7------7-----2------2----| 
G||-----2------2-----1------1-----7------7-----2------2----| 
D||--------------------------------------------------------| 
A||--------------------------------------------------------| 
E||--2------------0------------7------------2--------------| 


E||--------------------------------------------------------| 
B||-----2------2-----0------0-----7------7-----2------2----| 
G||-----2------2-----1------1-----7------7-----2------2----| 
D||--------------------------------------------------------| 
A||--------------------------------------------------------| 
E||--2------------0------------7------------2--------------| 


E||--------------------------------------------------------| 
B||-----2------2-----0------0-----7------7-----2------2----| 
G||-----2------2-----1------1-----7------7-----2------2----| 
D||--------------------------------------------------------| 
A||--------------------------------------------------------| 
E||--2------------0------------7------------2--------------| 


Guitar 2: 
E||--------17--------17------------------------------|--------17--------17----------------------------| 
B||-----14--------14--------14-----------------------|-----14--------14--------14---------------------| 
G||--16--------16--------16----16-14-------16-14-----|--16--------16--------16----16-14---------------| 
D||----------------------------------16----------16--|----------------------------------16--14--16----| x5 
A||--------------------------------------------------|------------------------------------------------| 
E||--------------------------------------------------|------------------------------------------------| 





***************************** 
-Tablature Legend- 

 h   hammer-on 
 p   pull-off 
 b   bend 
 pb  pre-bend 
 r   release bend 
 ~   hold / vibrato 
 .   palm mute 
 /   slide up 
 \   slide down 
 *   pinch harmonic 
 '   natural harmonic 
 x   mute note 
 T   tap 

***************************** 
  

top 5 | the federal empire
top rock'n roll
Outras músicas do artista letras do(a) The Federal Empire
Top cifras »Top artistas »
Petaxxon Comunicação Online
Cifras.com.br - Melhor e mais completo site de cifras e tablaturas do Brasil
Mais de 1 milhão de acordes de músicas cadastradas desde 2003
As informações contidas no nosso site são colaborações de seus usuários e podem conter erros, sendo assim, não nos responsabilizamos sobre nenhuma destas.
close
menos
mais
close
Cor dos acordes:

Cor da letra:

 

save
close
close
 
redimensionar