Cifras e Tablaturas
The Front Bottoms

The Front Bottoms

Grande Finale

Cifras Cancelar Versão de Impressão
cifras

The Front Bottoms - Grande Finale

fixar na tela  
Exibindo: vídeo-aula ver clipes redimensionar

Tom:

  
Intro 

e|-------------------|------------------| 
B|-------------------|------------------| 
G|-------------------|------------------| 
D|-------------------|---------------1--| 
A|-------------------|---------------2--| 
E|--0---2---/4---/7--|--0---2---/4---2--| 


verse 1 

e|-----------------|-----------------|-----------------|-------------------------| 
B|-----------------|-----------------|-----------------|-------------------------| 
G|-----------------|-----------------|-----------------|-------------------------| 
D|-9-9-9-9-9-9-9-9-|-8-8-8-8-8-8-8-8-|-9-9-9-9-9-9-9-9-|-13-13-13-13-13-13-13-13-| 
A|-----------------|-----------------|-----------------|-------------------------| 
E|-----------------|-----------------|-----------------|-------------------------| 
         PM                 PM                PM                   PM 
e|-----------------|-------------------------|-------------------------| 
B|-----------------|-------------------------|-------------------------| 
G|-----------------|-------------------------|-------------------------| 
D|-9-9-9-9-9-9-9-9-|-11-11-11-11-11-11-11-11-|-13-13-13-13-13-13-13-13-| 
A|-----------------|-------------------------|-------------------------| 
E|-----------------|-------------------------|-------------------------| 
         PM                    PM                        PM 


Pre-Chorus 1 

e|-----------------|-----------------|-----------------|-------------------------| 
B|-----------------|-----------------|-----------------|-------------------------| 
G|-----------------|-----------------|-----------------|-------------------------| 
D|-9-9-9-9-9-9-9-9-|-8-8-8-8-8-8-8-8-|-9-9-9-9-9-9-9-9-|-13-13-13-13-13-13-13-13-| 
A|-----------------|-----------------|-----------------|-------------------------| 
E|-----------------|-----------------|-----------------|-------------------------| 

e|-----------------|-------------------------|-------------------------|-------------------------| 
B|-----------------|-------------------------|-------------------------|-------------------------| 
G|-----------------|-------------------------|-------------------------|-------------------------| 
D|-9-9-9-9-9-9-9-9-|-11-11-11-11-11-11-11-11-|-13-13-13-13-13-13-13-13-|-13-13-13-13-13-13-13-13-| 
A|-----------------|-------------------------|-------------------------|-------------------------| 
E|-----------------|-------------------------|-------------------------|-------------------------| 


Chorus 1 

e|-----------------|-----------------|-----------------|-----------------| 
B|-----------------|-----------------|-----------------|-----------------| 
G|-----------------|-----------------|-----------------|-----------------| 
D|-2-2-2-2-2-2-2-2-|-4-4-4-4-4-4-4-4-|-6-6-6-6-6-6-6-6-|-9-9-9-9-9-9-9-9-| (x2) 
A|-2-2-2-2-2-2-2-2-|-4-4-4-4-4-4-4-4-|-6-6-6-6-6-6-6-6-|-9-9-9-9-9-9-9-9-| 
E|-0-0-0-0-0-0-0-0-|-2-2-2-2-2-2-2-2-|-4-4-4-4-4-4-4-4-|-7-7-7-7-7-7-7-7-| 


verse 2 

e|-------------------|--------------| 
B|-------------------|--------------| 
G|-------------------|--------------| 
D|-------------------|--------------| 
A|-------------------|--------------| 
E|--0---2---/4---/7--|--0---2---/4--| 


Pre-Chorus 2 

e|-----------------|-----------------|-----------------|-------------------------| 
B|-----------------|-----------------|-----------------|-------------------------| 
G|-----------------|-----------------|-----------------|-------------------------| 
D|-9-9-9-9-9-9-9-9-|-8-8-8-8-8-8-8-8-|-9-9-9-9-9-9-9-9-|-13-13-13-13-13-13-13-13-| 
A|-----------------|-----------------|-----------------|-------------------------| 
E|-----------------|-----------------|-----------------|-------------------------| 

e|-----------------|-------------------------|-------------------------|-------------------------| 
B|-----------------|-------------------------|-------------------------|-------------------------| 
G|-----------------|-------------------------|-------------------------|-------------------------| 
D|-9-9-9-9-9-9-9-9-|-11-11-11-11-11-11-11-11-|-13-13-13-13-13-13-13-13-|-13-13-13-13-13-13-13-13-| 
A|-----------------|-------------------------|-------------------------|-------------------------| 
E|-----------------|-------------------------|-------------------------|-------------------------| 


Chorus 2 

e|-----------------|-----------------|-----------------|-----------------| 
B|-----------------|-----------------|-----------------|-----------------| 
G|-----------------|-----------------|-----------------|-----------------| 
D|-2-2-2-2-2-2-2-2-|-4-4-4-4-4-4-4-4-|-6-6-6-6-6-6-6-6-|-9-9-9-9-9-9-9-9-| (x2) 
A|-2-2-2-2-2-2-2-2-|-4-4-4-4-4-4-4-4-|-6-6-6-6-6-6-6-6-|-9-9-9-9-9-9-9-9-| 
E|-0-0-0-0-0-0-0-0-|-2-2-2-2-2-2-2-2-|-4-4-4-4-4-4-4-4-|-7-7-7-7-7-7-7-7-| 

e|-----------------|-----------------|-----------------|-------------------------| 
B|-----------------|-----------------|-----------------|-------------------------| 
G|-----------------|-----------------|-----------------|-------------------------| 
D|-9-9-9-9-9-9-9-9-|-8-8-8-8-8-8-8-8-|-9-9-9-9-9-9-9-9-|-13-13-13-13-13-13-13-13-| 
A|-----------------|-----------------|-----------------|-------------------------| 
E|-----------------|-----------------|-----------------|-------------------------| 

e|-----------------|-------------------------|-------------------------|-------------------------| 
B|-----------------|-------------------------|-------------------------|-------------------------| 
G|-----------------|-------------------------|-------------------------|-------------------------| 
D|-9-9-9-9-9-9-9-9-|-11-11-11-11-11-11-11-11-|-13-13-13-13-13-13-13-13-|-13-13-13-13-13-13-13-13-| 
A|-----------------|-------------------------|-------------------------|-------------------------| 
E|-----------------|-------------------------|-------------------------|-------------------------| 


Bridge 

e|---------|---------|---------|---------| 
B|---------|---------|---------|---------| 
G|---------|---------|---------|---------| 
D|--2---2--|--4---4--|--6---6--|--9---9--| 
A|--2---2--|--4---4--|--6---6--|--9---9--| 
E|--0---0--|--2---2--|--4---4--|--7---7--| 

e|---------|---------|-----------------|------------------| 
B|---------|---------|-----------------|------------------| 
G|---------|---------|-----------------|------------------| 
D|--2---2--|--4---4--|-6-6-6-6-6-6-6-6-|-9-9-9-9-9--x--x--| 
A|--2---2--|--4---4--|-6-6-6-6-6-6-6-6-|-9-9-9-9-9--x--x--| 
E|--0---0--|--2---2--|-4-4-4-4-4-4-4-4-|-7-7-7-7-7--x--x--| 


Chorus 

e|-----------------|-----------------|-----------------|-----------------| 
B|-----------------|-----------------|-----------------|-----------------| 
G|-----------------|-----------------|-----------------|-----------------| 
D|-2-2-2-2-2-2-2-2-|-4-4-4-4-4-4-4-4-|-6-6-6-6-6-6-6-6-|-9-9-9-9-9-9-9-9-| (x2) 
A|-2-2-2-2-2-2-2-2-|-4-4-4-4-4-4-4-4-|-6-6-6-6-6-6-6-6-|-9-9-9-9-9-9-9-9-| 
E|-0-0-0-0-0-0-0-0-|-2-2-2-2-2-2-2-2-|-4-4-4-4-4-4-4-4-|-7-7-7-7-7-7-7-7-| 

e|-----------------|-----------------|-----------------|-------------------------| 
B|-----------------|-----------------|-----------------|-------------------------| 
G|-----------------|-----------------|-----------------|-------------------------| 
D|-9-9-9-9-9-9-9-9-|-8-8-8-8-8-8-8-8-|-9-9-9-9-9-9-9-9-|-13-13-13-13-13-13-13-13-| 
A|-----------------|-----------------|-----------------|-------------------------| 
E|-----------------|-----------------|-----------------|-------------------------| 

e|-----------------|-------------------------|-------------------------|-------------------------| 
B|-----------------|-------------------------|-------------------------|-------------------------| 
G|-----------------|-------------------------|-------------------------|-------------------------| 
D|-9-9-9-9-9-9-9-9-|-11-11-11-11-11-11-11-11-|-13-13-13-13-13-13-13-13-|-13-13-13-13-13-13-13-13-| 
A|-----------------|-------------------------|-------------------------|-------------------------| 
E|-----------------|-------------------------|-------------------------|-------------------------| 


Outro 

e|-----------------|-----------------|-----------------|-------------------------| 
B|-----------------|-----------------|-----------------|-------------------------| 
G|-----------------|-----------------|-----------------|-------------------------| 
D|-9-9-9-9-9-9-9-9-|-8-8-8-8-8-8-8-8-|-9-9-9-9-9-9-9-9-|-13-13-13-13-13-13-13-13-| 
A|-----------------|-----------------|-----------------|-------------------------| 
E|-----------------|-----------------|-----------------|-------------------------| 

e|-----------------|-------------------------|-------------------------|-------------------------| 
B|-----------------|-------------------------|-------------------------|-------------------------| 
G|-----------------|-------------------------|-------------------------|-------------------------| 
D|-9-9-9-9-9-9-9-9-|-11-11-11-11-11-11-11-11-|-13-13-13-13-13-13-13-13-|-13-13-13-13-13-13-13-13-| 
A|-----------------|-------------------------|-------------------------|-------------------------| 
E|-----------------|-------------------------|-------------------------|-------------------------| 



************************************ 

| x   Dead note 
| /   Slide up 
| PM  Palm mute 

************************************ 
  

top 5 | the front bottoms
top pop music
Outras músicas do artista letras do(a) The Front Bottoms
2.
2yl
Top cifras »Top artistas »
Petaxxon Comunicação Online
Cifras.com.br - Melhor e mais completo site de cifras e tablaturas do Brasil
Mais de 1 milhão de acordes de músicas cadastradas desde 2003
As informações contidas no nosso site são colaborações de seus usuários e podem conter erros, sendo assim, não nos responsabilizamos sobre nenhuma destas.
close
menos
mais
close
Cor dos acordes:

Cor da letra:

 

save
close
close
 
redimensionar