Cifras e Tablaturas
The Front Bottoms

The Front Bottoms

You Used To Say Holy Fuck

Cifras Cancelar Versão de Impressão
cifras

The Front Bottoms - You Used To Say Holy Fuck

fixar na tela  
Exibindo: vídeo-aula ver clipes redimensionar

Tom:

  
Intro 

e|----------------------------------|----------------------------------| 
B|----------------------------------|----------------------------------| 
G|-----------------7-7-7-7--5-5-5-5-|----------------------------------| 
D|-7-7-7-7-7-7----------------------|-7-7-7-7-7-7-----8-8-8-8--7-7-7-7-| 
A|-------------8-8------------------|-------------8-8------------------| 
E|----------------------------------|----------------------------------| 
                   PM                                PM 

verse 1 

e|----1----|----10---8----| 
B|----1----|----11---8----| 
G|----2----|----12---0----| 
D|----3----|---------7----| 
A|----3----|--------------| 
E|----1----|--------------| 


Chorus 1 

e|--------------------------|------------------------| 
B|-10-10-10--11-11-10-10-10-|-10-10-10--11-11--10-10-| 
G|-10-10-10--10-10-10-10-10-|-10-10-10--11-11--10-10-| 
D|--------------------------|------------------------| 
A|--------------------------|------------------------| 
E|--------------------------|------------------------| 

e|------------------|------------------| 
B|------------------|------------------| 
G|-10-10-10--12--10-|-10-10-10--12--14-| 
D|--8--8--8---8---8-|--8--8--8---8---8-| 
A|------------------|------------------| 
E|------------------|------------------| 


verse 2 

e|----------------------------------|----------------------------------| 
B|----------------------------------|----------------------------------| 
G|-----------------7-7-7-7--5-5-5-5-|----------------------------------| 
D|-7-7-7-7-7-7----------------------|-7-7-7-7-7-7-----8-8-8-8--7-7-7-7-| 
A|-------------8-8------------------|-------------8-8------------------| 
E|----------------------------------|----------------------------------| 
                   PM                                PM 
e|----------------------------------|----------------------------------| 
B|----------------------------------|----------------------------------| 
G|-----------------7-7-7-7--5-5-5-5-|----------------------------------| 
D|-7-7-7-7-7-7----------------------|-5-5-5-5-5-5-5-5--3-3-3-3-3-3-3-3-| (x2) 
A|-------------8-8------------------|----------------------------------| 
E|----------------------------------|----------------------------------| 
                   PM                                PM 


Chorus 2 

e|--------------------------|------------------------| 
B|-10-10-10--11-11-10-10-10-|-10-10-10--11-11--10-10-| 
G|-10-10-10--10-10-10-10-10-|-10-10-10--11-11--10-10-| 
D|--------------------------|------------------------| 
A|--------------------------|------------------------| 
E|--------------------------|------------------------| 

e|-----------------------| 
B|------13---15------13--| 
G|---------------12------| 
D|-----------------------| 
A|--8--------------------| 
E|-----------------------| 

e|------------------|----------------------| 
B|------------------|----------------------| 
G|-10-10-10--12--10-|-10-10-10--12--14-14--| 
D|--8--8--8---8---8-|--8--8--8---8---8--8--| 
A|------------------|----------------------| 
E|------------------|----------------------| 

e|--------------------------|------------------------| 
B|-10-10-10--11-11-10-10-10-|-10-10-10--11-11--10-10-| 
G|-10-10-10--10-10-10-10-10-|-10-10-10--11-11--10-10-| 
D|--------------------------|------------------------| 
A|--------------------------|------------------------| 
E|--------------------------|------------------------| 

e|-----------------------| 
B|------13---15------13--| 
G|---------------12------| 
D|-----------------------| 
A|--8--------------------| 
E|-----------------------| 

e|------------------|----------------------| 
B|------------------|----------------------| 
G|-10-10-10--12--10-|-10-10-10--12--14-14--| 
D|--8--8--8---8---8-|--8--8--8---8---8--8--| 
A|------------------|----------------------| 
E|------------------|----------------------| 


Solo 

e|-----------------------|-----------------------|------------------------|------------------------| 
B|-10-----------10-------|-10-----------10-------|--11-----------11-------|--11-----------11-------| 
G|----10-----12----12-10-|----10-----12----12-10-|------------10----10--9-|------------10----10--9-| 
D|--------10-------------|--------10-------------|-----12--12-------------|-----12--12-------------| 
A|-----------------------|-----------------------|------------------------|------------------------| 
E|-----------------------|-----------------------|------------------------|------------------------| 

e|------------------------------|------------------------------| 
B|-------13--13-10-----------10-|-------13--13-10-----------10-| 
G|-----------------12--12-10----|-----------------12--12-10----| 
D|--8/10------------------------|--8/10------------------------| 
A|------------------------------|------------------------------| 
E|------------------------------|------------------------------| 

e|--------------------------------|----------------------------------| 
B|------15--13--------------------|------15--13----------------------| 
G|--/14--------15-12--14--12--10--|--/14--------15-12--14--12--10-12-| 
D|--------------------------------|----------------------------------| 
A|--------------------------------|----------------------------------| 
E|--------------------------------|----------------------------------| 

e|----------------|---------------|--------| 
B|-------------10-|------------10-|--------| 
G|-----10--12-----|----10--12-----|---10~--| 
D|-12-------------|-8-------------|--------| 
A|----------------|---------------|--------| 
E|----------------|---------------|--------| 

e|-----------------------------------------|------------------------------20--18--| 
B|------13------13------18----17-----15----|------15------15------15--18----------| 
G|--/14-----/14-----/17----17----17-----17-|--/15-----/15-----/15-----------------| 
D|-----------------------------------------|--------------------------------------| 
A|-----------------------------------------|--------------------------------------| 
E|-----------------------------------------|--------------------------------------| 

e|------------------------|------------------------------20--| 
B|-----18----17-----15----|------15------15------15--18------| 
G|-/17----17----17-----17-|--/15-----/15-----/15-------------| 
D|------------------------|----------------------------------| 
A|------------------------|----------------------------------| 
E|------------------------|----------------------------------| 

e|-17-18--20-17-18----|-20--17-18-----|-20--17-18----|-20--17-18----| 
B|-----------------20-|-----------20--|-----------18-|-----------18-| 
G|--------------------|---------------|--------------|--------------| 
D|--------------------|---------------|--------------|--------------| 
A|--------------------|---------------|--------------|--------------| 
E|--------------------|---------------|--------------|--------------| 


Outro 

e|--20----17-----|--20----17-----| 
B|-----18----18--|--20----17-----| 
G|---------------|---------------| 
D|---------------|---------------| (x5) 
A|---------------|---------------| 
E|---------------|---------------| 


************************************ 

| /   Slide up 
| ~   Vibrato 
| PM  Palm mute 

************************************ 
  

top 5 | the front bottoms
top pop music
Outras músicas do artista letras do(a) The Front Bottoms
1.
Maps
Top cifras »Top artistas »
Petaxxon Comunicação Online
Cifras.com.br - Melhor e mais completo site de cifras e tablaturas do Brasil
Mais de 1 milhão de acordes de músicas cadastradas desde 2003
As informações contidas no nosso site são colaborações de seus usuários e podem conter erros, sendo assim, não nos responsabilizamos sobre nenhuma destas.
close
menos
mais
close
Cor dos acordes:

Cor da letra:

 

save
close
close
 
redimensionar