Cifras e Tablaturas
The Great Escape

The Great Escape

I Can't Resist

Cifras Cancelar Versão de Impressão

The Great Escape - I Can't Resist

Tom: Em

  			Em 
Hey what you got in the shop for me 
C                   Am 
Hey silver lining just in time for tea 
Em 
Hey chaos touch me 
C                  Am 
Seductively soothing my intensity 
Em 
Hey I'm jumping ship, not giving up 
C                        Am 
Hey it's a country western shoot down load up 
Em 
Hey under pressure doesn't make a lesson 
C                     Am                     Am 
So find your white gem in the dark treasure 
               Em 
I can't resist 
               C  Am 
I won't resist 
        Em 
I'd knock down walls cause 
 C 
I can't 

I can't 
           Am 
I can't   
               Em 
I can't resist 
               C  Am 
I won't resist 
        Em 
I'd knock down walls cause 
 C 
I can't 

I can't 
           Am 
I can't   

I can't resist 


Solo do Refrão;  


E|-----------------------------------------------------| 
B|-----------------------------------------------------| 
G|-----------------5--4--2--5--4--2--0-----------------| 
D|--------4--5-----------------------------------------| 
A|-----7--------0--------------------------------------| 
E|--0--------------------------------------------------| 


Em 
Hey can you lock down the expression 
C               Am 
Hey inside a moment's confession 
Em 
Hey two eyes one look 
C               Am 
Man you're an open book 
Em 
Hey all the rivers become oceans 
C                  Am 
Hey go on and space your devotion 
Em 
Hey ditch your sorrow I won't borrow 
C            Am 
Give me what I want 
               Em 
I can't resist 
               C  Am 
I won't resist 
        Em 
I'd knock down walls cause 
 C 
I can't 

I can't 
           Am 
I can't   
               Em 
I can't resist 
               C  Am 
I won't resist 
        Em 
I'd knock down walls cause 
 C 
I can't 

I can't 
           Am 
I can't   

I can't resist 

Solo do Refrão;  


E|-----------------------------------------------------| 
B|-----------------------------------------------------| 
G|-----------------5--4--2--5--4--2--0-----------------| 
D|--------4--5-----------------------------------------| 
A|-----7--------0--------------------------------------| 
E|--0--------------------------------------------------| 
    	
fixar
fixar inscrever-se

enviado porenviado por: sabrjoao
cifra enviadaCorrigida por: sem correções
logo top cifrasComente
ico música do artistaMúsicas deste artista
ico curtiuCurtiu?
ico destaqueDestaque
Petaxxon Comunicação Online

Cifras.com.br - Melhor e mais completo site de cifras e tablaturas do Brasil Mais de 1 milhão de acordes de músicas cadastradas desde 2003
As informações contidas no nosso site são colaborações de seus usuários e podem conter erros, sendo assim, não nos responsabilizamos sobre nenhuma destas.

close
menos
mais
close
Cor dos acordes:

Cor da letra:

close
Alinhar acordes a direita Alinhar acordes a esquerda Alinhar acordes em baixo Alinhar acordes no topo
close
  Mostrar todos os acordes Esconder acordes muito fáceis Esconder acordes fáceis Esconder acordes intermediários
redimensionar
glossário