Cifras e Tablaturas
The Hunna

The Hunna

Piece By Piece

Cifras Cancelar Versão de Impressão
cifras

The Hunna - Piece By Piece

fixar na tela  
Exibindo: vídeo-aula ver clipes redimensionar

Tom:

  
Intro and verse - guitar 1 

e|--------------------------------------|-----------------------------| 
B|-11-11-11-11-11-11-11-11--------------|-----------------------------| 
G|-------------------------10-10-10-10--|-8-8-8-8-8-8-8-8-10-10-10-10-| 
D|--------------------------------------|-----------------------------| 
A|--------------------------------------|-----------------------------| 
E|--------------------------------------|-----------------------------| 

e|--------------------------------------|-----------------------------| 
B|-11-11-11-11-11-11-11-11--------------|-----------------------------| 
G|-------------------------10-10-10-10--|-8-8-8-8-8-8-8-8-7-7-7-7-----| 
D|--------------------------------------|-----------------------------| 
A|--------------------------------------|-----------------------------| 
E|--------------------------------------|-----------------------------| 

Intro and verse - guitar 2 

e|--------------------------------------|-----------------------------| 
B|-19\1---------------------------------|-19\1-------------------4----| 
G|--------------------------------------|----------------------3------| 
D|--------------------------------------|-----------------------------| 
A|--------------------------------------|-----------------------------| 
E|--------------------------------------|-----------------------------| 

Chorus - guitar 1 

e|--------------------------------------|-------------------------------------| 
B|-11-11-11-11-11-11-11-11--------------|-11-11-11-11-11-11-11-11-------------| 
G|-------------------------10-10-10-10--|-------------------------10-10-10-10-| 
D|--------------------------------------|-------------------------------------| 
A|--------------------------------------|-------------------------------------| 
E|--------------------------------------|-------------------------------------| 

verse 2 - guitar 2 

e|-------------| 
B|-8------13\8-| 
G|-------------| 
D|-------------| 
A|-------------| 
E|-------------| 

Solo 

e|---------|----------8---|--------|----------8----|-----------------|----------8---8----| 
B|-8-------|-8----------6-|-8------|-8----------6--|-8---------------|-8----------6---6--| 
G|---7-8---|---7-8-10-----|---7-8--|---7-8-10------|---7-8-8-8-8-8-8-|---7-8-10----------| 
D|---------|--------------|--------|---------------|-----------------|-------------------| 
A|---------|--------------|--------|---------------|-----------------|-------------------| 
E|---------|--------------|--------|---------------|-----------------|-------------------| 

e|----------------------|---------------| 
B|-8--------------------|-8--------13\--| 
G|---7-8-8-8-8-8-8-5-5--|---7-8-10------| 
D|----------------------|---------------| 
A|----------------------|---------------| 
E|----------------------|---------------| 


************************************ 

| \   Slide down 

************************************ 
  

top 5 | the hunna
top rock'n roll
Outras músicas do artista letras do(a) The Hunna
Top cifras »Top artistas »
Petaxxon Comunicação Online
Cifras.com.br - Melhor e mais completo site de cifras e tablaturas do Brasil
Mais de 1 milhão de acordes de músicas cadastradas desde 2003
As informações contidas no nosso site são colaborações de seus usuários e podem conter erros, sendo assim, não nos responsabilizamos sobre nenhuma destas.
close
menos
mais
close
Cor dos acordes:

Cor da letra:

 

save
close
close
 
redimensionar