Cifras e Tablaturas
The Lillingtons

The Lillingtons

London Fog

Cifras Cancelar Versão de Impressão
cifras

The Lillingtons - London Fog

fixar na tela  
Exibindo: vídeo-aula ver clipes redimensionar

Tom:

  
Intro 

e|------------------------------------|--------------------------------------| 
B|------------------------------------|--------------------------------------| 
G|------------------------------------|--------------------------------------|   x 2 
D|------------------------------------|--------------------------------------| 
A|------------------------------------|--------------------------------------| 
E|---2----------2/10-------10\2-------|-------------2--------5--7------------| 


e|---------------------------------------------------------------------------| 
B|--12-12-12--10-10-10-9--10-10-10-9-9-9-7---9--9-9-9-9-9--10-10-10-9-9-9-7--|   x 2 
G|---------------------------------------------------------------------------| 
D|---------------------------------------------------------------------------| 
A|---------------------------------------------------------------------------| 
E|---------------------------------------------------------------------------| 


Verse 

e|------------------------------------|--------------------------------------| 
B|------------------------------------|--------------------------------------|   x 4 
G|------------------------------------|--------------------------------------| 
A|--4---4-4-4-4-4-4-4-4-4-4-4-4-4-4-4-|-4-4-4-4-4-4-4-4-4--7-7-7--9-9-9------| 
A|--4---4-4-4-4-4-4-4-4-4-4-4-4-4-4-4-|-4-4-4-4-4-4-4-4-4--7-7-7--9-9-9------| 
E|--2---2-2-2-2-2-2-2-2-2-2-2-2-2-2-2-|-2-2-2-2-2-2-2-2-2--5-5-5--7-7-7------| 
       PM ----------------------------------------------> 

Chorus 

e|---------------------------------------------------------------------------| 
B|---------------------------------------------------------------------------| 
G|--7-7-7-7-7-7--9-9-9-9-9-9---11-11\9--11-11\9--11-11\9--11-11--------------| 
D|--7-7-7-7-7-7--9-9-9-9-9-9---11-11\9--11-11\9--11-11\9--11-11--------------| 
A|--5-5-5-5-5-5--7-7-7-7-7-7---9--9-\7--9--9-\7--9--9-\7--9--9---------------| 
E|---------------------------------------------------------------------------| 

e|---------------------------------------------------------------------------| 
B|---------------------------------------------------------------------------| 
G|--7-7-7-7-7-7--9-9-9-9-9-9---11-11-11-11\9--11-11-11-11\9------------------| 
D|--7-7-7-7-7-7--9-9-9-9-9-9---11-11-11-11\9--11-11-11-11\9------------------| 
A|--5-5-5-5-5-5--7-7-7-7-7-7---9--9--9--9-\7--9--9--9--9-\7------------------| 
E|---------------------------------------------------------------------------| 
                              (Listen to the song, but first three notes are  
                               kind of punchy here. You need to lift your fingers 
                               off the strings after each strum) 

e|---------------------------------------------------------------------------| 
B|---------------------------------------------------------------------------| 
G|--7-7-7-7-7-7--9-9-9-9-9-9---11-11-11-11-11-11-11-11-11-11-11-11-----------| 
D|--7-7-7-7-7-7--9-9-9-9-9-9---11-11-11-11-11-11-11-11-11-11-11-11-----------| 
A|--5-5-5-5-5-5--7-7-7-7-7-7---9--9--9--9--9--9--9--9--9--9--9--9------------| 
E|---------------------------------------------------------------------------| 

e|-----------------------------9---------------------------------------------| 
B|-----------------------------10--------------------------------------------| 
G|--7-7-7-7-7-7--9-9-9-9-9-9---11--------------------------------------------| 
D|--7-7-7-7-7-7--9-9-9-9-9-9---11--------------------------------------------| 
A|--5-5-5-5-5-5--7-7-7-7-7-7---9---------------------------------------------| 
E|---------------------------------------------------------------------------| 
                               (let ring) 

Interlude 

e|---------------------------------------------------------------------------| 
B|----7--7--7--7--7--7--7--7--7--7--7--7--7--7--7--7-------------------------|    x 3 
G|--6--6--6--6--6--6--6--6--7--7--7--7--7--7--7--7---------------------------| 
D|---------------------------------------------------------------------------| 
A|---------------------------------------------------------------------------| 
E|---------------------------------------------------------------------------| 

e|----------------------------------|----------------------------------------| 
B|----------------------------------|----------------------------------------| 
G|----------------------------------|----------------------------------------| 
D|---11/12-11-9----9-11----9--------|---11/12-11-9----9-11-------------------| 
A|--------------12------12----------|--------------12------12-9--------------| 
E|----------------------------------|----------------------------------------| 


Chorus 

e|---------------------------------------------------------------------------| 
B|---------------------------------------------------------------------------| 
G|--7-7-7-7-7-7--9-9-9-9-9-9---11-11\9--11-11\9--11-11\9--11-11--------------| 
D|--7-7-7-7-7-7--9-9-9-9-9-9---11-11\9--11-11\9--11-11\9--11-11--------------| 
A|--5-5-5-5-5-5--7-7-7-7-7-7---9--9-\7--9--9-\7--9--9-\7--9--9---------------| 
E|---------------------------------------------------------------------------| 

e|---------------------------------------------------------------------------| 
B|---------------------------------------------------------------------------| 
G|--7-7-7-7-7-7--9-9-9-9-9-9---11-11-11-11\9--11-11-11-11\9------------------| 
D|--7-7-7-7-7-7--9-9-9-9-9-9---11-11-11-11\9--11-11-11-11\9------------------| 
A|--5-5-5-5-5-5--7-7-7-7-7-7---9--9--9--9-\7--9--9--9--9-\7------------------| 
E|---------------------------------------------------------------------------| 
                              (Listen to the song, but first three notes are  
                               kind of punchy here. You need to lift your fingers 
                               off the strings after each strum) 

e|---------------------------------------------------------------------------| 
B|---------------------------------------------------------------------------| 
G|--7-7-7-7-7-7--9-9-9-9-9-9---11-11-11-11-11-11-11-11-11-11-11-11-----------| 
D|--7-7-7-7-7-7--9-9-9-9-9-9---11-11-11-11-11-11-11-11-11-11-11-11-----------| 
A|--5-5-5-5-5-5--7-7-7-7-7-7---9--9--9--9--9--9--9--9--9--9--9--9------------| 
E|---------------------------------------------------------------------------| 

e|------------------------------|--------------------------------------------| 
B|------------------------------|--------------------------------------------| 
G|--7-7-7-7-7-7--9-9-9-9-9-9----|--------------------------------------------| 
D|--7-7-7-7-7-7--9-9-9-9-9-9----|--------------------------------------------| 
A|--5-5-5-5-5-5--7-7-7-7-7-7----|--------------------------------------------| 
E|------------------------------|--------------------------------------------| 
                                 (last part of this bar is actually first of outro) 
Outro 

e|---------------------------------------------------------------------------| 
B|---------------------------------------------------------------------------| 
G|--9/11---14-13h14p13----11--11-11-11-11-9-9-9-9-7-7-7-7-6-6-6-6------------| 
D|---------------------14-----------------------------------------7/9\7-6----| 
A|------------------------------------------------------------------------9--| 
E|---------------------------------------------------------------------------| 

e|---------------------------------------------------------------------------| 
B|---------------------------------------------------------------------------| 
G|---------------------------------------------------------------------------| 
D|-----------7-7h9/11\9-7-9/11\9-7------7-6----------------------------------| 
A|--9--9-7-9-------------------------9-9------9------------------------------| 
E|---------------------------------------------------------------------------| 
                                    PM PM 

(The next three sections are played on one string with some very quick alternate picking. 
 For the first two parts, keep your first finger on 11 and just tap the other  
 notes with your pinky or ring finger) 
e|---------------------------------------------------------------------------| 
B|---------------------------------------------------------------------------| 
G|-11-11-11-14-11-11-11-13-11-11-11-14-11-11-11-13---------------------------| 
D|---------------------------------------------------------------------------| 
A|---------------------------------------------------------------------------| 
E|---------------------------------------------------------------------------| 

e|---------------------------------------------------------------------------| 
B|---------------------------------------------------------------------------| 
G|-11-11-11-16-11-11-11-14-11-11-11-16-11-11-11-14---------------------------| 
D|---------------------------------------------------------------------------| 
A|---------------------------------------------------------------------------| 
E|---------------------------------------------------------------------------| 

e|---------------------------------------------------------------------------| 
B|---------------------------------------------------------------------------| 
G|-18-18-18-18-16-16-16-16-14-14-14-14-13-11h13p11-9h11----------------------| 
D|---------------------------------------------------------------------------| 
A|---------------------------------------------------------------------------| 
E|---------------------------------------------------------------------------| 

e|----17p16p14h16--17-19p17p16h17--17-19-17-16-------------------------------| 
B|-14------------------------------------------17-19~------------------------| 
G|---------------------------------------------------------------------------| 
D|---------------------------------------------------------------------------| 
A|---------------------------------------------------------------------------| 
E|---------------------------------------------------------------------------| 


************************************ 

| h   Hammer-on 
| p   Pull-off 
| /   Slide up 
| \   Slide down 
| ~   Vibrato 
| PM  Palm mute  

************************************ 
  

top 5 | the lillingtons
top rock'n roll
Outras músicas do artista letras do(a) The Lillingtons
Top cifras »Top artistas »
Petaxxon Comunicação Online
Cifras.com.br - Melhor e mais completo site de cifras e tablaturas do Brasil
Mais de 1 milhão de acordes de músicas cadastradas desde 2003
As informações contidas no nosso site são colaborações de seus usuários e podem conter erros, sendo assim, não nos responsabilizamos sobre nenhuma destas.
close
menos
mais
close
Cor dos acordes:

Cor da letra:

 

save
close
close
 
redimensionar