Cifras e Tablaturas
The Morning After Girls

The Morning After Girls

Straight Thru You

Cifras Cancelar Versão de Impressão Print

The Morning After Girls - Straight Thru You

Tom: D

  • 0:00 / 0:00
  			Released On: Triple J Home & Hosed The First Harvest (Disc 1 Track 7) 
 
Transcribed by Paul @ OzTabs ([email protected]) 
www.ozmusic-central.com.au/oztabs 
 
Notes: I think this may be in an open D tuning, but I just 
play along in drop D without hitting the higher pitched strings. 
Comments & corrections welcome. 
Tuning DADGBE 
 
INTRO: 
E-|----------5---3------------5---3-|- 
B-|-5-5-5--5---5-----5-5-5--5---5---|- 
G-|-4-4-4------------4-4-4----------|- 
D-|-2-2-2------------2-2-2----------|- 
A-|-2-2-2------------2-2-2----------|- 
D-|-2-2-2------------2-2-2----------|- 
 
MAIN CHORD PROGRESSION: 
E-|--------------------|- 
B-|--------------------|- 
G-|--------------------|- 
D-|-2--5--7--5--7-5-0--|- 
A-|-2--5--7--5--7-5-0--|- 
D-|-2--5--7--5--7-5-0--|- 
 
MAIN LEAD PART: 
E-|---5---3----5--3-2--------|- 
B-|-5---5----5--------3---5--|- 
G-|--------------------------|- 
D-|--------------------------|- 
A-|--------------------------|- 
D-|--------------------------|- 
 
BRIDGE: 
E-|---------------------------------|- 
B-|---------------------------------|- 
G-|---------------------------------|- 
D-|-7-7-5-2--2-2-2---7-7-5-2--2-2-2-|- 
A-|-7-7-5-2--2-2-2---7-7-5-2--2-2-2-|- 
D-|-7-7-5-2--2-2-2---7-7-5-2--2-2-2-|- 
 
 

    	

enviado porenviado por: anônimo
cifra enviadaCorrigida por: sem correções
logo top cifrasComente
ico música do artistaMúsicas deste artista
ico curtiuCurtiu?
ico destaqueDestaque
Petaxxon Comunicação Online

Cifras.com.br - Melhor e mais completo site de cifras e tablaturas do Brasil Mais de 1 milhão de acordes de músicas cadastradas desde 2003
As informações contidas no nosso site são colaborações de seus usuários e podem conter erros, sendo assim, não nos responsabilizamos sobre nenhuma destas.

close
menos
mais
close
Cor dos acordes:

Cor da letra:

close
Alinhar acordes a direita Alinhar acordes a esquerda Alinhar acordes em baixo Alinhar acordes no topo
close
  Mostrar todos os acordes Esconder acordes muito fáceis Esconder acordes fáceis Esconder acordes intermediários
redimensionar
glossário