Cifras e Tablaturas
The Mysterons

The Mysterons

Turkish Delight

Cifras Cancelar Versão de Impressão
cifras

The Mysterons - Turkish Delight

fixar na tela  
Exibindo: vídeo-aula ver clipes redimensionar

Tom:

  
Intro 

e|---------------------------------------------------|--------------------------------------------------| 
B|---------------------------------------------------|--------------------------------------------------| 
G|-------------0----------------0----------5---4-----|-------------0--------------0---------------------| 
D|------4---------4---2---4--------4---2-------------|------4---------4---2------------4----------------| x4 
A|--2-------2----------------2-----------------------|--2-------2-------------3-------------0-----------| 
E|---------------------------------------------------|--------------------------------------------------| 


Verse 

e|---------------------------------------------------|--------------------------------------------------| 
B|---------------------------------------------------|--------------------------------------------------| 
G|-------------0----------------0----------5---4-----|-------------0--------------0---------------------| 
D|------4---------4---2---4--------4---2-------------|------4---------4---2------------4----------------| x4 
A|--2-------2----------------2-----------------------|--2-------2-------------3-------------0-----------| 
E|---------------------------------------------------|--------------------------------------------------| 

e|---------------------------------------------------|--------------------------------------------------| 
B|---------------------------------------------------|--------------------------------------------------| 
G|-----4---5p4p2-4--5p4p2-4--5p4p2-4--5p4p2-4--5p4p2-|-4--5p4p2-4--5p4p2-4--5p4p2-4--5p4p2-4--5p4p2-4-2-| 
D|--2------------------------------------------------|--------------------------------------------------| 
A|---------------------------------------------------|--------------------------------------------------| 
E|---------------------------------------------------|--------------------------------------------------| 

e|---------------------------------------------------|--------------------------------------------------| 
B|---------------------------------------------------|--------------------------------------------------| 
G|-------------0----------------0----------5---4-----|-------------0--------------0---------------------| 
D|------4---------4---2---4--------4---2-------------|------4---------4---2------------4----------------| x2 
A|--2-------2----------------2-----------------------|--2-------2-------------3-------------0-----------| 
E|---------------------------------------------------|--------------------------------------------------| 

Lead guitar rests for four measures. 

Pre-Chorus 

e|----5----------|----3---------|-----2-----2-----2-----2-----|------2-----2-----2-----2-------| 
B|----5----------|----3---------|-----4-----4-----4-----4-----|------4-----4-----4-----4-------| 
G|----5----------|----4---------|-----4-----4-----4-----4-----|------4-----4-----4-----4-------| 
D|----7----------|----5---------|-----4-----4-----4-----4-----|------4-----4-----4-----4-------| 
A|----7----------|----5---------|-----2-----2-----2-----2-----|------2-----2-----2-----2-------| 
E|----5----------|----3---------|-----2-----2-----2-----2-----|------2-----2-----2-----2-------| 

e|--------------------------|-----------------------|---------------------------|------------------| 
B|--------------------------|-----------------------|---------------------------|------------------| 
G|------2-----2--4---2\1/2--|------2-----2---4---2--|------2----2---4---2\1/2---|----------4-5-----| 
D|---2------2---------------|---2------2------------|---2-----2-----------------|------2-3-----4-5-| 
A|--------------------------|-----------------------|---------------------------|--2-3-------------| 
E|--------------------------|-----------------------|---------------------------|------------------| 

e|----------------------------------|-------------------------3------7-------| 
B|----------------------------------|-------------------------5------8-------| 
G|-------------------7----5--4------|------------------5------5------9-------| 
D|------7-------7---------------7---|--------4--5--7----------5------9-------| 
A|---5------5-----------------------|----5--------------------3------7-------| 
E|----------------------------------|-------------------------3------7-------| 


Chorus 

e|----------------------------------|-------------------------3------7-------| 
B|----------------------------------|-------------------------5------8-------| 
G|-------------------7----5--4------|------------------5------5------9-------| 
D|------7-------7---------------7---|--------4--5--7----------5------9-------| x4 
A|---5------5-----------------------|----5--------------------3------7-------| 
E|----------------------------------|-------------------------3------7-------| 

Synth Solo 

Lead guitar rests for eight measures. 


Verse 

e|---------------------------------------------------|--------------------------------------------------| 
B|---------------------------------------------------|--------------------------------------------------| 
G|-------------0----------------0----------5---4-----|-------------0--------------0---------------------| 
D|------4---------4---2---4--------4---2-------------|------4---------4---2------------4----------------| x4 
A|--2-------2----------------2-----------------------|--2-------2-------------3-------------0-----------| 
E|---------------------------------------------------|--------------------------------------------------| 

e|---------------------------------------------------|--------------------------------------------------| 
B|---------------------------------------------------|--------------------------------------------------| 
G|-----4---5p4p2-4--5p4p2-4--5p4p2-4--5p4p2-4--5p4p2-|-4--5p4p2-4--5p4p2-4--5p4p2-4--5p4p2-4--5p4p2-4-2-| 
D|--2------------------------------------------------|--------------------------------------------------| 
A|---------------------------------------------------|--------------------------------------------------| 
E|---------------------------------------------------|--------------------------------------------------| 

Lead guitar rests for eight measures. 


Pre-Chorus 

e|----5----------|----3---------|-----2-----2-----2-----2-----|------2-----2-----2-----2-------| 
B|----5----------|----3---------|-----4-----4-----4-----4-----|------4-----4-----4-----4-------| 
G|----5----------|----4---------|-----4-----4-----4-----4-----|------4-----4-----4-----4-------| 
D|----7----------|----5---------|-----4-----4-----4-----4-----|------4-----4-----4-----4-------| 
A|----7----------|----5---------|-----2-----2-----2-----2-----|------2-----2-----2-----2-------| 
E|----5----------|----3---------|-----2-----2-----2-----2-----|------2-----2-----2-----2-------| 

e|--------------------------|-----------------------|---------------------------|------------------| 
B|--------------------------|-----------------------|---------------------------|------------------| 
G|------2-----2--4---2\1/2--|------2-----2---4---2--|------2----2---4---2\1/2---|----------4-5-----| 
D|---2------2---------------|---2------2------------|---2-----2-----------------|------2-3-----4-5-| 
A|--------------------------|-----------------------|---------------------------|--2-3-------------| 
E|--------------------------|-----------------------|---------------------------|------------------| 

e|----------------------------------|-------------------------3------7-------| 
B|----------------------------------|-------------------------5------8-------| 
G|-------------------7----5--4------|------------------5------5------9-------| 
D|------7-------7---------------7---|--------4--5--7----------5------9-------| 
A|---5------5-----------------------|----5--------------------3------7-------| 
E|----------------------------------|-------------------------3------7-------| 


Chorus 

e|----------------------------------|-------------------------3------7-------| 
B|----------------------------------|-------------------------5------8-------| 
G|-------------------7----5--4------|------------------5------5------9-------| 
D|------7-------7---------------7---|--------4--5--7----------5------9-------| x4 
A|---5------5-----------------------|----5--------------------3------7-------| 
E|----------------------------------|-------------------------3------7-------| 

Bridge 

e|------7---7---7--7-5-3-5----0----0--0-3------|------7---7---7--7-5-3-5----12----10h12p10---------| 
B|---------------------------------------------|-------------------------------------------12------| 
G|---------------------------------------------|---------------------------------------------------| 
D|---------------------------------------------|---------------------------------------------------| 
A|---------------------------------------------|---------------------------------------------------| 
E|---------------------------------------------|---------------------------------------------------| 

e|------7---7---7--7-5-3-5----0----0--0-3------|------2------2-------------------------------------| 
B|---------------------------------------------|----------3----3h5p3\1--0------1--0----------------| 
G|---------------------------------------------|---------------------------2-----------------------| 
D|---------------------------------------------|-----------------------------2---------------------| 
A|---------------------------------------------|---------------------------------------------------| 
E|---------------------------------------------|---------------------------------------------------| 

Lead guitar rests for three measures. 

PM------------------------------------------------| 
e|------12--12-----12--14-------12--12-----12-10--| 
B|---10---------10-----------10---------10--------| 
G|------------------------------------------------| 
D|------------------------------------------------| x5 
A|------------------------------------------------| 
E|------------------------------------------------| 

PM------------------------------------------------| 
e|------10--10-----10--12-----10--10-----10--12---| 
B|---8---------8-----------8---------8------------| 
G|------------------------------------------------| 
D|------------------------------------------------| x2 
A|------------------------------------------------| 
E|------------------------------------------------| 

PM------------------------------------------------| 
e|------12--12-----12--14-------12--12-----12-10--| 
B|---10---------10-----------10---------10--------| 
G|------------------------------------------------| 
D|------------------------------------------------| x5 
A|------------------------------------------------| 
E|------------------------------------------------| 

PM------------------------------------------------| 
e|------10--10-----10--12-----10--10-----10--12---| 
B|---8---------8-----------8---------8------------| 
G|------------------------------------------------| 
D|------------------------------------------------| x4 
A|------------------------------------------------| 
E|------------------------------------------------| 


Guitar Solo 

e|------7---7---7--7-5-3-5----0----0--0-3------|------7---7---7--7-5-3-5----12----10h12p10---------| 
B|---------------------------------------------|-------------------------------------------12------| 
G|---------------------------------------------|---------------------------------------------------| 
D|---------------------------------------------|---------------------------------------------------| 
A|---------------------------------------------|---------------------------------------------------| 
E|---------------------------------------------|---------------------------------------------------| 

e------------------------|---------------------|-----------------------------------------------------------| 
B|-----------------------|-----------6/8-------|-----------------------------------------------------------| 
G|-------7---------7/9---|---9/10---------7----|-----9/10--9/10--9/10--9/10--9/10-9/10-9/10-9/10-9/10-9/10-| 
D|----5--------5---------|---------------------|--5--------------------------------------------------------| 
A|-----------------------|---------------------|-----------------------------------------------------------| 
E|-----------------------|---------------------|-----------------------------------------------------------| 

e|---------------------------------------------------------| 
B|---------------------------------------------------------| 
G|-------9------5h7p5-----7----------9-------5h7p5--5------| 
D|---5------5----------5--------5--------5-------------5---| 
A|---------------------------------------------------------| 
E|---------------------------------------------------------| 

e|---------------------------------------------------------| 
B|---------------------------------------------------------| 
G|-------9------5h7p5-----7----------9-------5h7p5--5------| 
D|---5------5----------5--------5--------5-------------5---| 
A|---------------------------------------------------------| 
E|---------------------------------------------------------| 

e|--------------------------------------------|----------------------------------------| 
B|--------------------------------------------|----------------------------------------| 
G|-----------------------------------7--5-4---|--------------------7--5-4--------------| 
D|--7--7h9p7p5-7--7h9p7p5-7--7h9p7p5--------7-|-7h9p7p5o7--7h9p7p5--------7--7h9p7p5o7-| 
A|-5------------------------------------------|----------------------------------------| 
E|--------------------------------------------|----------------------------------------| 

e|----------------------3----7---------| 
B|----------------------5----8---------| 
G|----------------5-----5----9---------| 
D|-7h9p7p5-4--5-7-------5----9---------| 
A|----------------------3----7---------| 
E|----------------------3----7---------| 

e|-------------------------------------------------------|-------------------------------------------3----7-| 
B|-------------------------------------------------------|-------------------------------------------5----8-| 
G|----------------------------------------------7--5-4---|--------------------7--5-4-----------5-----5----9-| 
D|--7--7h9p7p5-7--7h9p7p5-7--7h9p7p5-7--7h9p7p5--------7-|-7h9p7p5o7--7h9p7p5--------7--4--5-7-------5----9-| 
A|-5-----------------------------------------------------|-------------------------------------------3----7-| 
E|-------------------------------------------------------|-------------------------------------------3----7-| 


Chorus 

e|----------------------------------|-------------------------3------7-------| 
B|----------------------------------|-------------------------5------8-------| 
G|-------------------7----5--4------|------------------5------5------9-------| 
D|------7-------7---------------7---|--------4--5--7----------5------9-------| x4 
A|---5------5-----------------------|----5--------------------3------7-------| 
E|----------------------------------|-------------------------3------7-------| 



************************************ 

| h   Hammer-on 
| p   Pull-off 
| /   Slide up 
| \   Slide down 
| PM  Palm mute 

************************************ 
  

top 5 | the mysterons
top rock'n roll
Outras músicas do artista letras do(a) The Mysterons
Top cifras »Top artistas »
Petaxxon Comunicação Online
Cifras.com.br - Melhor e mais completo site de cifras e tablaturas do Brasil
Mais de 1 milhão de acordes de músicas cadastradas desde 2003
As informações contidas no nosso site são colaborações de seus usuários e podem conter erros, sendo assim, não nos responsabilizamos sobre nenhuma destas.
close
menos
mais
close
Cor dos acordes:

Cor da letra:

 

save
close
close
 
redimensionar