Cifras e Tablaturas
The Police

The Police

Shambelle

Cifras Cancelar Versão de Impressão
cifras

The Police - Shambelle

fixar na tela  
Exibindo: vídeo-aula ver clipes redimensionar
  
  Q=138 
                                  $ 
  N.C. 
 4/4 
  Gtr I (Clean El Gtr.) 
  W            W               8x 
|----------||------------------||-| 
|----------||o----------------o||-| 
|----------||------------------||-| 
|----------||------------------||-| 
|----------||o----------------o||-| 
|----------||------------------||-| 
| 
| Gtr II (Clean El. Gtr.) 
|              PM------|    PM----- 
| W            e e e e e Q  e  8x 
|----------||------------3-----||-| 
|----------||o---------1------o||-| 
|----------||---------------3--||-| 
|----------||--2-2-3-3---------||-| 
|----------||o----------------o||-| 
|----------||------------------||-| 


    Bb               C                     Bb 
    H.           +E  E   +H.           +E  E 
||---------------------|----------------------| 
||o-6------------(6)-5-|-(5)-----------(5)-3--| 
||--7------------(7)-5-|-(5)-----------(5)-3--| 
||--8------------(8)-5-|-(5)-----------(5)-3--| 
||o--------------------|----------------------| 
||---------------------|----------------------| 
| 
|------------|       PM------------|       PM 
|   e  e e e e Q     e    e  e e e e Q     e 
||-------------3-------|-------------3--------| 
||o----------1---------|-----------1----------| 
||-------------------3-|-------------------3--| 
||--2--2-3-3-----------|--2--2-3-3------------| 
||o--------------------|----------------------| 
||---------------------|----------------------| 


  +W                 +W 
|------------------|------------------| 
|-(3)--------------|-(3)--------------| 
|-(3)--------------|-(3)--------------| 
|-(3)--------------|-(3)--------------| 
|------------------|------------------| 
|------------------|------------------| 
| 
|  PM-------|    PM------------|    PM- 
|  e  e e e e Q  e    e  e e e e Q  e 
|-------------3----|-------------3----| 
|-----------1------|-----------1------| 
|----------------3-|----------------3-| 
|--2--2-3-3--------|--2--2-3-3--------| 
|------------------|------------------| 
|------------------|------------------| 


  Bb               C                     Bb 
  H.           +E  E   +H.           +E  E 
|--------------------|---------------------| 
|-6------------(6)-5-|-(5)-----------(5)-3-| 
|-7------------(7)-5-|-(5)-----------(5)-3-| 
|-8------------(8)-5-|-(5)-----------(5)-3-| 
|--------------------|---------------------| 
|--------------------|---------------------| 
| 
|----------|       PM------------|       PM 
| e  e e e e Q     e    e  e e e e Q     e 
|------------3-------|-------------3-------| 
|----------1---------|-----------1---------| 
|------------------3-|-------------------3-| 
|-2--2-3-3-----------|--2--2-3-3-----------| 
|--------------------|---------------------| 
|--------------------|---------------------| 


          C        Bb          C 
  +Q.     E +Q.    E   +Q.      E  +H 
|--------------------|----------------------| 
|-(3)-----5-(5)----6-|-(6)------8--(8)------| 
|-(3)-----5-(5)----7-|-(7)------9--(9)------| 
|-(3)-----5-(5)----8-|-(8)-----10-(10)------| 
|--------------------|----------------------| 
|--------------------|----------------------| 
| 
|  PM-------|      PM-------------|       PM- 
|  e  e e e  e  Q  e    e  e e  e   e  Q  e 
|---------------3----|-----------------3----| 
|------------1-------|--------------1-------| 
|------------------3-|--------------------3-| 
|--2--2-3-3----------|--2--2-3--3-----------| 
|--------------------|----------------------| 
|--------------------|----------------------| 


  Bb     C        Bb                     EbD 
  Q.     E +Q.    E   +Q.      E  +Q.    S S 
|-------------------|--------------------6s5s=| 
|-3------5-(5)----6-|-(6)------8--(8)----8s7s=| 
|-3------5-(5)----7-|-(7)------9--(9)----8s7s=| 
|-3------5-(5)----8-|-(8)-----10-(10)---------| 
|-------------------|-------------------------| 
|-------------------|-------------------------| 
| 
|----------|      PM-------------|       PM 
| e  e e e  e  Q  e    e  e e  e   e  Q  e 
|--------------3----|-----------------3-------| 
|-----------1-------|--------------1----------| 
|-----------------3-|--------------------3----| 
|-2--2-3-3----------|--2--2-3--3--------------| 
|-------------------|-------------------------| 
|-------------------|-------------------------| 


  Eb          F                    Bb 
  H       +E   Q.      H       +E  Q. 
|-6-------(6)--8\----|-5-------(5)-6\----| 
|-8-------(8)-10\----|-6-------(6)-6\----| 
|-8-------(8)-10\----|-5-------(5)-7\----| 
|--------------------|-------------------| 
|--------------------|-------------------| 
|--------------------|-------------------| 
| 
| PM------|        PM----------|       PM- 
| e e e e  e   Q   e   e e e e  e  Q   e 
|--------------3-----|-------------3-----| 
|----------1---------|----------1--------| 
|------------------3-|-----------------3-| 
|-2-2-3-3------------|-2-2-3-3-----------| 
|--------------------|-------------------| 
|--------------------|-------------------| 


  Eb 
  W                H.           +E  S S 
|-3--------------|------------------6s5s=| 
|-4--------------|-3------------(3)-8s7s=| 
|-3--------------|-0------------(0)-8s7s=| 
|----------------|-----------------------| 
|----------------|-----------------------| 
|----------------|-----------------------| 
| 
|---------|    PM-----------|       PM 
| e e e e e Q  e   e  e e e e Q     e 
|-----------3----|------------3----------| 
|---------1------|----------1------------| 
|--------------3-|------------------3----| 
|-2-2-3-3--------|-2--2-3-3--------------| 
|----------------|-----------------------| 
|----------------|-----------------------| 


                                          1. 
  H       +E   Q.      H       +E  Q.      W                +W 
|-6-------(6)--8\----|-5-------(5)-6\----|-3--------------|-(3)---------------|| 
|-8-------(8)-10\----|-6-------(6)-6\----|-4--------------|-(4)--------------o|| 
|-8-------(8)-10\----|-5-------(5)-7\----|-3--------------|-(3)---------------|| 
|--------------------|-------------------|----------------|-------------------|| 
|--------------------|-------------------|----------------|------------------o|| 
|--------------------|-------------------|----------------|-------------------|| 
| 
| PM------|        PM----------|       PM----------|    PM------------|    PM 
| e e e e  e   Q   e   e e e e  e  Q   e   e e e e e Q  e    e  e e e e Q  e 
|--------------3-----|-------------3-----|-----------3----|-------------3-----|| 
|----------1---------|----------1--------|---------1------|-----------1------o|| 
|------------------3-|-----------------3-|--------------3-|----------------3--|| 
|-2-2-3-3------------|-2-2-3-3-----------|-2-2-3-3--------|--2--2-3-3---------|| 
|--------------------|-------------------|----------------|------------------o|| 
|--------------------|-------------------|----------------|-------------------|| 


  2. 
                                           Dadd4/A 
  W                +E  +Q.     +H           W                +W 
|-3--------------|-(3)-(3)-----(3)------||-----------------|------------------| 
|-4--------------|-(4)-(4)-----(4)------||-^3--------------|-(3)--------------| 
|-3--------------|-(3)-(3)-----(3)------||-^0--------------|-(0)--------------| 
|----------------|----------------------||-^4--------------|-(4)--------------| 
|----------------|----------------------||-^5--------------|-(5)--------------| 
|----------------|----------------------||-^5--------------|-(5)--------------| 
| 
| PM------|    PM--------------|      PM------------|    PM------------|    PM 
| e e e e e Q  e    e   e  e e  e  Q  e     e e e e e Q  e    e  e e e e Q  e 
|-----------3----|-----------------3----||------------3----|-------------3----| 
|---------1------|--------------1-------||----------1------|-----------1------| 
|--------------3-|--------------------3-||---------------3-|----------------3-| 
|-2-2-3-3--------|--2---2--3-3----------||--2-2-3-3--------|--2--2-3-3--------| 
|----------------|----------------------||-----------------|------------------| 
|----------------|----------------------||-----------------|------------------| 


  +W                 W 
|------------------|----------------| 
|-(3)--------------|----------------| 
|-(0)--------------|----------------| 
|-(4)--------------|----------------| 
|-(5)--------------|----------------| 
|-(5)--------------|----------------| 
| 
|  PM-------|    PM----------|    PM- 
|  e  e e e e Q  e   e e e e e Q  e 
|-------------3----|-----------3----| 
|-----------1------|---------1------| 
|----------------3-|--------------3-| 
|--2--2-3-3--------|-2-2-3-3--------| 
|------------------|----------------| 
|------------------|----------------| 


    Bb                  F      Bb 
     E.    S  Q   E  Q   E  7x  E.    S  E  E  +E   S  S  Q 
||--------------------------||---------------------------------| 
||o-11----11-11-----11p=10-o||-11----11-11-11-(11)-11-11-11----| 
||--10----10-10-----10--10--||-10----10-10-10-(10)-10-10-10----| 
||--12----12-12-----12p=10--||-12----12-12-12-(12)-12-12-12----| 
||o------------------------o||---------------------------------| 
||--------------------------||---------------------------------| 
| 
|-----------------|      PM-------------------|             PM 
|    e  e     e e e  Q   e  7x  e  e     e  e   e   Q       e 
||-------------------3------||----------------------3----------| 
||o---------------1--------o||------------------1--------------| 
||-----------------------3--||------------------------------3--| 
||---2--2-----3-3-----------||--2--2-----3--3------------------| 
||o------------------------o||---------------------------------| 
||--------------------------||---------------------------------| 


    Am 
     E.    S  E  E  +E   S  S  Q    4x 
||---8-----8--8--8--(8)--8--8--8----||-| 
||o-10----10-10-10-(10)-10-10-10---o||-| 
||---9-----9--9--9--(9)--9--9--9----||-| 
||----------------------------------||-| 
||o--------------------------------o||-| 
||----------------------------------||-| 
| 
|    PM------------|             PM----- 
|    e  e     e  e   e   Q       e  4x 
||-----------------------3----------||-| 
||o------------------1-------------o||-| 
||-------------------------------3--||-| 
||---2--2-----3--3------------------||-| 
||o--------------------------------o||-| 
||----------------------------------||-| 


    Bb                  F 
     E.    S  Q   E  Q   E  3x  E.    S  Q   E  Q. 
||--------------------------||-------------------------|| 
||o-11----11-11-----11p=10-o||-11----11-11-----11------|| 
||--10----10-10-----10--10--||-10----10-10-----10------|| 
||--12----12-12-----12p=10--||-12----12-12-----12------|| 
||o------------------------o||-------------------------|| 
||--------------------------||-------------------------|| 
| 
|-----------------|      PM------------------|      PM 
|    e  e     e e e  Q   e  3x  e  e     e e e  Q   e 
||-------------------3------||------------------3------|| 
||o---------------1--------o||---------------1---------|| 
||-----------------------3--||----------------------3--|| 
||---2--2-----3-3-----------||--2--2-----3-3-----------|| 
||o------------------------o||-------------------------|| 
||--------------------------||-------------------------|| 


                                                                    To Coda 
    C                 Bb                A 
     W                 W                 W                +W 
||--^8--------------|-^6--------------|-^5--------------|-(5)----------------|| 
||o-^8--------------|-^6--------------|-^5--------------|-(5)---------------o|| 
||--^9--------------|-^7--------------|-^6--------------|-(6)----------------|| 
||------------------|-----------------|-----------------|--------------------|| 
||o-----------------|-----------------|-----------------|-------------------o|| 
||------------------|-----------------|-----------------|--------------------|| 
| 
|    PM------|    PM-----------|    PM-----------|    PM------------|    PM 
|    e e e e e Q  e    e e e e e Q  e    e e e e e Q  e    e  e e e e Q  e 
||-------------3----|------------3----|------------3----|-------------3------|| 
||o----------1------|----------1------|----------1------|-----------1-------o|| 
||----------------3-|---------------3-|---------------3-|----------------3---|| 
||---2-2-3-3--------|--2-2-3-3--------|--2-2-3-3--------|--2--2-3-3----------|| 
||o-----------------|-----------------|-----------------|-------------------o|| 
||------------------|-----------------|-----------------|--------------------|| 


                                                               D.S. al Coda 
  Dadd4/A 
   W                +W                 +W                 +W 
|-----------------|------------------|------------------|-------------------|| 
|-^3--------------|-(3)--------------|-(3)--------------|-(3)---------------|| 
|-^0--------------|-(0)--------------|-(0)--------------|-(0)---------------|| 
|-^4--------------|-(4)--------------|-(4)--------------|-(4)---------------|| 
|-^5--------------|-(5)--------------|-(5)--------------|-(5)---------------|| 
|-^5--------------|-(5)--------------|-(5)--------------|-(5)---------------|| 
| 
|  PM------|    PM------------|    PM------------|    PM------------|    PM 
|  e e e e e Q  e    e  e e e e Q  e    e  e e e e Q  e    e  e e e e Q  e 
|------------3----|-------------3----|-------------3----|-------------3-----|| 
|----------1------|-----------1------|-----------1------|-----------1-------|| 
|---------------3-|----------------3-|----------------3-|----------------3--|| 
|--2-2-3-3--------|--2--2-3-3--------|--2--2-3-3--------|--2--2-3-3---------|| 
|-----------------|------------------|------------------|-------------------|| 
|-----------------|------------------|------------------|-------------------|| 


    & 
    Dadd4/A                              D7add4 
     W                +W                  W                +W                 6x 
||------------------|------------------|-----------------|--------------------|| 
||o-^3--------------|-(3)--------------|-^1--------------|-(1)---------------o|| 
||--^0--------------|-(0)--------------|-^0--------------|-(0)----------------|| 
||--^4--------------|-(4)--------------|-^4--------------|-(4)----------------|| 
||o-^5--------------|-(5)--------------|-^5--------------|-(5)---------------o|| 
||--^5--------------|-(5)--------------|-^5--------------|-(5)----------------|| 
| 
|    PM------|    PM------------|    PM-----------|    PM------------|    PM 
|    e e e e e Q  e    e  e e e e Q  e    e e e e e Q  e    e  e e e e Q  e   6x 
||-------------3----|-------------3----|------------3----|-------------3------|| 
||o----------1------|-----------1------|----------1------|-----------1-------o|| 
||----------------3-|----------------3-|---------------3-|----------------3---|| 
||---2-2-3-3--------|--2--2-3-3--------|--2-2-3-3--------|--2--2-3-3----------|| 
||o-----------------|------------------|-----------------|-------------------o|| 
||------------------|------------------|-----------------|--------------------||  
  

cifra enviadasem correções
enviado porenviada por:carlluz
top 5 | the police
top rock'n roll
Outras músicas do artista letras do(a) The Police
Top cifras »Top artistas »
Petaxxon Comunicação Online
Cifras.com.br - Melhor e mais completo site de cifras e tablaturas do Brasil
Mais de 1 milhão de acordes de músicas cadastradas desde 2003
As informações contidas no nosso site são colaborações de seus usuários e podem conter erros, sendo assim, não nos responsabilizamos sobre nenhuma destas.
close
menos
mais
close
Cor dos acordes:

Cor da letra:

 

save
close
close
 
redimensionar