Cifras e Tablaturas
The sunshine kids
Cifras Cancelar Versão de Impressão Print

The sunshine kids - Sunshine

Tom:

  • 0:00 / 0:00
  			e|---------5--5---5--5----5--5----5--5-----3--3---3--3---3--3---3--3--------------------|  
B|--------7--7---7--7----5--5----5--5-----3--3---3--3---3--3---3--3--------------------|  
G|--------7--7---7--7----6--6----6--6-----4--4---4--4---4--4---4--4--------------------|  
D|------------------------------------------------repeat twice-------------------------------|  
A|-------------------------------------------------------------------------------|  
E|-----------------------------------------------------------------------------| 
 
e|---------------------------------------------------------------------------|  
B|--------------------------------------------------------------------------|  
G|----9-------------11---9---------------------------------------------------|  
D|----9----9---7---11---9---------repeat 3 times---------------------------|  
A|----7----9---7----9---7---------------------------------------------------------|  
E|----------7---5-----------------------------------------------------------------| 
 
e|-----------------------------------------------------------------------------------|  
B|----------------------------------------------------------------------------|  
G|----9-------------------------------------------------------------------------|  
D|----9---9---7---11---9-----------------------------------------------------------------|  
A|----7---9---7---11---9-----------------------------------------------------------------|  
E|--------7---5----9----7-------------------------------------------------------------| 
 
 

    	

enviado porenviado por: SkaMaN7
cifra enviadaCorrigida por: sem correções
logo top cifrasComente
ico música do artistaMúsicas deste artista
ico curtiuCurtiu?
ico destaqueDestaque
Petaxxon Comunicação Online

Cifras.com.br - Melhor e mais completo site de cifras e tablaturas do Brasil Mais de 1 milhão de acordes de músicas cadastradas desde 2003
As informações contidas no nosso site são colaborações de seus usuários e podem conter erros, sendo assim, não nos responsabilizamos sobre nenhuma destas.

close
menos
mais
close
Cor dos acordes:

Cor da letra:

close
Alinhar acordes a direita Alinhar acordes a esquerda Alinhar acordes em baixo Alinhar acordes no topo
close
  Mostrar todos os acordes Esconder acordes muito fáceis Esconder acordes fáceis Esconder acordes intermediários
redimensionar
glossário