Cifras e Tablaturas
The Tallest Man On Earth

The Tallest Man On Earth

Fly In Numbers

Cifras Cancelar Versão de Impressão
cifras

The Tallest Man On Earth - Fly In Numbers

fixar na tela  
Exibindo: vídeo-aula ver clipes redimensionar

Tom:

  
Intro 
f|-------0-----| 
A|----0-----0--| 
F|---0-----0---| 
C|-----0-----0-| 
A|-------------| 
F|-0-----0-----| x4 

f|-------0-------0---------|-------0-----------------| 
A|----0-----0--1-----0-----|----0-----0------0-----0-| 
F|---0-----0-----------2---|---0-----0-----0-----0---| 
C|-----0-----0-----0-----0-|-----2-----2-------------| 
A|-------------------------|-------------1-----0-----| 
F|-0-----0-----0-----0-----|-0-----0-----------------| 

f|-------0-----------0-----|-------0-----------0-----| 
A|----0-----0-----0-----0--|----0-----0-----0-----0--| 
F|---0-----0-----0-----0---|---2-----2-----2-----2---| 
C|-----2-----2-----2-----2-|-----4-----4-----4-----4-| 
A|-------------------------|-------------------------| 
F|-2-----2-----2-----2-----|-2-----2-----2-----2-----| x2 

Verse 
f|-------------------0-----|-------0-----------0-----| 
A|-----0-----0----0-----0--|----0-----0-----0-----0--| 
F|---2-----0-----2-----2---|---2-----2-----0-----0---| 
C|-----------------4-----4-|-----4-----4-----2-----2-| 
A|-1-----------------------|-4-----------5-----------| 
F|-------2-----2-----2-----|-------4-----------5-----| 

f|-------0-----------0-----|-------4---2-------------| 
A|----0-----0-----0-----0--|-------------------------| 
F|---0-----0-----0-----0---|-----2-----2-----2-----2-| 
C|-----2-----2-----2-----2-|-0-----0-----0-----0-----| 
A|-------------------------|-------------------------| 
F|-2-----2-----2-----2-----|-------------------------| x2 

Chorus 
f|-------0-----------0-----|-------0-----------------| 
A|----0-----0-----0-----0--|----0-----0------0-----0-| 
F|---0-----0-----0-----0---|---0-----0-----0-----0---| 
C|-----0-----0-----0-----0-|-----2-----2-------------| 
A|-------------------------|-------------1-----0-----| 
F|-0-----0-----0-----0-----|-0-----0-----------------| 

f|-------0-----------0-----|-------0-----------0-----| 
A|----0-----0-----0-----0--|----0-----0-----0-----0--| 
F|---0-----0-----0-----0---|---2-----2-----2-----2---| 
C|-----2-----2-----2-----2-|-----4-----4-----4-----4-| 
A|-------------------------|-------------------------| 
F|-2-----2-----2-----2-----|-2-----2-----2-----2-----| x2 

f|-------0-------0---------|-------0-----------------| 
A|----0-----0--1-----0-----|----0-----0------0-----0-| 
F|---0-----0-----------2---|---0-----0-----0-----0---| 
C|-----0-----0-----0-----0-|-----2-----2-------------| 
A|-------------------------|-------------1-----0-----| 
F|-0-----0-----0-----0-----|-0-----0-----------------| 

f|-------0-----------0-----|-------0-----------0-----| 
A|----0-----0-----0-----0--|----0-----0-----0-----0--| 
F|---0-----0-----0-----0---|---2-----2-----2-----2---| 
C|-----2-----2-----2-----2-|-----4-----4-----4-----4-| 
A|-------------------------|-------------------------| 
F|-2-----2-----2-----2-----|-2-----2-----2-----2-----| x2 

Verse 
f|-------------------0-----|-------0-----------0-----| 
A|-----0-----0----0-----0--|----0-----0-----0-----0--| 
F|---2-----0-----2-----2---|---2-----2-----0-----0---| 
C|-----------------4-----4-|-----4-----4-----2-----2-| 
A|-1-----------------------|-4-----------5-----------| 
F|-------2-----2-----2-----|-------4-----------5-----| 

f|-------0-----------0-----|-------4---2-------------| 
A|----0-----0-----0-----0--|-------------------------| 
F|---0-----0-----0-----0---|-----2-----2-----2-----2-| 
C|-----2-----2-----2-----2-|-0-----0-----0-----0-----| 
A|-------------------------|-------------------------| 
F|-2-----2-----2-----2-----|-------------------------| x2 

Chorus 
f|-------0-----------0-----|-------0-----------------| 
A|----0-----0-----0-----0--|----0-----0------0-----0-| 
F|---0-----0-----0-----0---|---0-----0-----0-----0---| 
C|-----0-----0-----0-----0-|-----2-----2-------------| 
A|-------------------------|-------------1-----0-----| 
F|-0-----0-----0-----0-----|-0-----0-----------------| 

f|-------0-----------0-----|-------0-----------0-----| 
A|----0-----0-----0-----0--|----0-----0-----0-----0--| 
F|---0-----0-----0-----0---|---2-----2-----2-----2---| 
C|-----2-----2-----2-----2-|-----4-----4-----4-----4-| 
A|-------------------------|-------------------------| 
F|-2-----2-----2-----2-----|-2-----2-----2-----2-----| x2 

f|-------0-------0---------|-------0-----------------| 
A|----0-----0--1-----0-----|----0-----0------0-----0-| 
F|---0-----0-----------2---|---0-----0-----0-----0---| 
C|-----0-----0-----0-----0-|-----2-----2-------------| 
A|-------------------------|-------------1-----0-----| 
F|-0-----0-----0-----0-----|-0-----0-----------------| 

f|-------0-----------0-----|-------0-----------0-----| 
A|----0-----0-----0-----0--|----0-----0-----0-----0--| 
F|---0-----0-----0-----0---|---2-----2-----2-----2---| 
C|-----2-----2-----2-----2-|-----4-----4-----4-----4-| 
A|-------------------------|-------------------------| 
F|-2-----2-----2-----2-----|-2-----2-----2-----2-----| x2 

Bridge 
f|-------4-----2---0-------|-------0-----------0-----| 
A|-------3-----3---3-------|----1-----1-----1-----1--|          
F|-------0-----------------|---0-----0-----0-----0---|          
C|-----0-----0-----x-----0-|-----2-----2-----2-----2-|           
A|-------------------------|-------------------------|          
F|-0-----0-----0-----0-----|-0-----0-----0-----0-----|          

f|-------0-----------0-----|-------0-----------0-----| 
A|----0-----0-----0-----0--|----0-----0-----0-----0--| 
F|---0-----0-----0-----0---|---2-----2-----2-----2---| 
C|-----2-----2-----2-----2-|-----4-----4-----4-----4-| 
A|-------------------------|-------------------------| 
F|-2-----2-----2-----2-----|-2-----2-----2-----2-----| x2 

f|-------0-----------0-----|-------0-----------0-----| 
A|----0-----0-----0-----0--|----0-----0-----0-----0--| 
F|---0-----0-----2-----2---|---0-----0-----0-----0---| 
C|-----2-----2-----4-----4-|-----0-----0-----2-----2-| 
A|-------------------------|-------------------------| 
F|-2-----2-----2-----2-----|-0-----0-----0-----0-----| 

f|-------0-----------0-----|-------0-----------0-----| 
A|----0-----0-----0-----0--|----0-----0-----0-----0--| 
F|---0-----0-----0-----0---|---2-----2-----2-----2---| 
C|-----2-----2-----2-----2-|-----4-----4-----4-----4-| 
A|-------------------5-----|-------------------------| 
F|-2-----2-----5-----------|-2-----2-----2-----2-----| x2 

Interlude 
f|-------0-------0---------|-------0-----------------| 
A|----0-----0--1-----0-----|----0-----0------0-----0-| 
F|---0-----0-----------2---|---0-----0-----0-----0---| 
C|-----0-----0-----0-----0-|-----2-----2-------------| 
A|-------------------------|-------------1-----0-----| 
F|-0-----0-----0-----0-----|-0-----0-----------------| 

f|-------------------------|-------0-----------0-----| 
A|----0----0---3p0-----0---|----0-----0-----0-----0--| 
F|---0---2--------0--2-----|---2-----2-----2-----2---| 
C|-----2-----2-----2-----2-|-----4-----4-----4-----4-| 
A|-------------------------|-------------------------| 
F|-2-----2-----2-----2-----|-2-----2-----2-----2-----| 

Chorus 
f|-------0-----------0-----|-------0-----------------| 
A|----0-----0-----0-----0--|----0-----0------0-----0-| 
F|---0-----0-----0-----0---|---0-----0-----0-----0---| 
C|-----0-----0-----0-----0-|-----2-----2-------------| 
A|-------------------------|-------------1-----0-----| 
F|-0-----0-----0-----0-----|-0-----0-----------------| 

f|-------0-----------0-----|-------0-----------0-----| 
A|----0-----0-----0-----0--|----0-----0-----0-----0--| 
F|---0-----0-----0-----0---|---2-----2-----2-----2---| 
C|-----2-----2-----2-----2-|-----4-----4-----4-----4-| 
A|-------------------------|-------------------------| 
F|-2-----2-----2-----2-----|-2-----2-----2-----2-----| x2 

f|-------0-------0---------|-------0-----------------| 
A|----0-----0--1-----0-----|----0-----0------0-----0-| 
F|---0-----0-----------2---|---0-----0-----0-----0---| 
C|-----0-----0-----0-----0-|-----2-----2-------------| 
A|-------------------------|-------------1-----0-----| 
F|-0-----0-----0-----0-----|-0-----0-----------------| 

f|-------0-----------0-----|-------0-----------0-----| 
A|----0-----0-----0-----0--|----0-----0-----0-----0--| 
F|---0-----0-----0-----0---|---2-----2-----2-----2---| 
C|-----2-----2-----2-----2-|-----4-----4-----4-----4-| 
A|-------------------------|-------------------------| 
F|-2-----2-----2-----2-----|-2-----2-----2-----2-----| x4 

f|-------0-----------0-----|-------0-----------0-----|-0---| 
A|----0-----0-----0-----0--|----0-----0-----0-----0--|-0---| 
F|---2-----2-----2-----2---|---2-----2-----2-----2---|-2p0-| 
C|-----4-----4-----4-----4-|-----4-----4-----4-----4-|-0---| 
A|-------------------------|-------------------------|-0---| 
F|-2-----2-----2-----2-----|-2-----2-----2-----2-----|-0---| 


************************************ 

| x   Dead note 
| p   Pull-off 

************************************ 
  

top 5 | the tallest man on earth
top pop music
Outras músicas do artista letras do(a) The Tallest Man On Earth
3.
1904
Top cifras »Top artistas »
Petaxxon Comunicação Online
Cifras.com.br - Melhor e mais completo site de cifras e tablaturas do Brasil
Mais de 1 milhão de acordes de músicas cadastradas desde 2003
As informações contidas no nosso site são colaborações de seus usuários e podem conter erros, sendo assim, não nos responsabilizamos sobre nenhuma destas.
close
menos
mais
close
Cor dos acordes:

Cor da letra:

 

save
close
close
 
redimensionar