Cifras e Tablaturas
The Tallest Man On Earth

The Tallest Man On Earth

In Little Fires

Cifras Cancelar Versão de Impressão
cifras

The Tallest Man On Earth - In Little Fires

fixar na tela  
Exibindo: vídeo-aula ver clipes redimensionar

Tom:

  
Intro 

D|---------------5---------------------|-------------5-------------------| 
B|---0----3----0----3---0------1p0h1---|---0----3----0----3---0-----1----| 
G|---0----2---------2---0-----0--------|---0----2---------2---0----0-----| 
D|---------------------------0-2-------|--------------------------2------| 
G|-0-----------------------------------|-0-------------------------------| 
B|-------------------------------------|---------------------------------| 

D|---------0-----------------0h2p0-------|-------4---------------5---------| 
B|-----------0h1p0---------1-------1-----|-----3---3-----------5---5-------| 
G|---0-0h2---------2-0---0-----------0---|---2-------2---2---4-------4---4-| 
D|---------------------2---------------2-|-0-----------0---0-----------0---| 
G|-0-------------------------------------|---------------------------------| 
B|---------------------------------------|---------------------------------| 

D|-------0---------------0h2p0-------|-------4---------------4---------| 
B|-----1---1-----------1-------1-----|-----3---3-----------0---0-------| 
G|---0-------0---0---0-----------0---|---2-------2---2---2-------2---2-| 
D|-----------------2---------------2-|-0-----------0---0-----------0---| 
G|-2-----------2---------------------|---------------------------------| 
B|-----------------------------------|---------------------------------| 


verse 1 

D|-------5---------------0---------|-------4---------------4---------| 
B|-----3---3-----------1---1-------|-----3---3-----------0---0-------| 
G|---0-------0---0---0-------0---0-|---2-------2---2---2-------2---2-| 
D|-----------------2-----------2---|-0-----------0---0-----------0---| 
G|-0-----------0-------------------|---------------------------------| 
B|---------------------------------|---------------------------------| 

D|-------0---------------0---------|-------4---------------4---------| 
B|-----1---1-----------1---1-------|-----3---3-----------0---0-------| 
G|---0-------0---0---0-------0---0-|---2-------2---2---2-------2---2-| 
D|-----------------2-----------2---|-0-----------0---0-----------0---| 
G|-2-----------2-------------------|---------------------------------| 
B|---------------------------------|---------------------------------|  2x 


Chorus 

D|---------------------------------|---------------------------------| 
B|-------3---------------3---------|-------0---------------0---------| 
G|-----4---4-----------0---0-------|-----0---0-----------0---0-------| 
D|---4-------4---4---4-------4---4-|---0-------0---0---4-------4---4-| 
G|---------------------------------|---------------------------------| 
B|-0-----------0---0-----------0---|-5-----------5---5-----------5---| 

D|---------------------------------|---------------------------------| 
B|-------0---------------0---------|-------0---------------0---------| 
G|-----0---0-----------0---0-------|-----0---0-----------2---2-------| 
D|---2-------2---2---2-------2---2-|---0-------0---0---0-------0---0-| 
G|---------------------------------|-0-----------0-------------------| 
B|-1-----------1---1-----------1---|-----------------3-----------0---|  2x 


PostChorus 

D|-----------------------0-----------|---------------------------------| 
B|-------0-------------1---1-----1p0-|-------0---------------0---------| 
G|-----0---0---------0-------0-------|-----2---2-----------2---2-------| 
D|---2-------2---2-------------------|---0-------0---0---0-------0---0-| 
G|-----------------2-----------2-----|---------------------------------| 
B|-1-----------1---------------------|-3-----------3---3-----------3---| 

D|-------0-----------------------------|---------------------------------| 
B|---------0h1p0-----------0-------1p0-|-------0---------------0---------| 
G|---0-0---------2-0-----0---0---------|-----2---2-----------2---2-------| 
D|-2-------------------2-------2-------|---0-------0---0---0-------0---0-| 
G|-------------------------------------|---------------------------------| 
B|-------------------1-----------1-----|-3-----------3---3-----------3---| 


verse 2 

D|-------5---------------0---------|-------4---------------4---------| 
B|-----3---3-----------1---1-------|-----3---3-----------0---0-------| 
G|---0-------0---0---0-------0---0-|---2-------2---2---2-------2---2-| 
D|-----------------2-----------2---|-0-----------0---0-----------0---| 
G|-0-----------0-------------------|---------------------------------| 
B|---------------------------------|---------------------------------| 

D|-------0---------------0---------|-------4---------------4---------| 
B|-----1---1-----------1---1-------|-----3---3-----------0---0-------| 
G|---0-------0---0---0-------0---0-|---2-------2---2---2-------2---2-| 
D|-----------------2-----------2---|-0-----------0---0-----------0---| 
G|-2-----------2-------------------|---------------------------------| 
B|---------------------------------|---------------------------------|  2x 


Chorus 

D|---------------------------------|---------------------------------| 
B|-------3---------------3---------|-------0---------------0---------| 
G|-----4---4-----------0---0-------|-----0---0-----------0---0-------| 
D|---4-------4---4---4-------4---4-|---0-------0---0---4-------4---4-| 
G|---------------------------------|---------------------------------| 
B|-0-----------0---0-----------0---|-5-----------5---5-----------5---| 

D|---------------------------------|---------------------------------| 
B|-------0---------------0---------|-------0---------------0---------| 
G|-----0---0-----------0---0-------|-----0---0-----------2---2-------| 
D|---2-------2---2---2-------2---2-|---0-------0---0---0-------0---0-| 
G|---------------------------------|-0-----------0-------------------| 
B|-1-----------1---1-----------1---|-----------------3-----------0---|  2x 


PostChorus 

D|-----------------------0-----------|---------------------------------| 
B|-------0-------------1---1-----1p0-|-------0---------------0---------| 
G|-----0---0---------0-------0-------|-----2---2-----------2---2-------| 
D|---2-------2---2-------------------|---0-------0---0---0-------0---0-| 
G|-----------------2-----------2-----|---------------------------------| 
B|-1-----------1---------------------|-3-----------3---3-----------3---| 

D|-------0-----------------0-----------|---------------------------------| 
B|---------0h1p0-------------------1p0-|-------0---------------0---------| 
G|---0-0---------2-0-----0---0---------|-----2---2-----------2---2-------| 
D|-2-------------------0-------0-------|---0-------0---0---0-------0---0-| 
G|-------------------------------------|---------------------------------| 
B|-------------------1-----------1-----|-3-----------3---3-----------0---| 


Bridge 


D|---------------------------------|---------------------------------| 
B|-------0---------------0---------|-------0---------------0---------| 
G|-----0---0-----------0---0-------|-----2---2-----------2---2-------| 
D|---2-------2---2---0-------0---0-|---0-------0---0---0-------0---0-| 
G|-----------------2-----------2---|---------------------------------| 
B|-1-----------1-------------------|-3-----------3---3-----------3---| 

D|---------------------------------|---------------------------------| 
B|-------0---------------0---------|-------0---------------0---------| 
G|-----0---0-----------0---0-------|-----2---2-----------2---2-------| 
D|---0-------0---0---2-------2---2-|---0-------0---0---0-------0---0-| 
G|-0-----------0-------------------|---------------------------------| 
B|-----------------1-----------1---|-3-----------3---3-----------0---|  2x 

Outro 

D|-----------------------0-----------|---------------------------------| 
B|-------0-------------1---1-----1p0-|-------0---------------0---------| 
G|-----0---0---------0-------0-------|-----2---2-----------2---2-------| 
D|---2-------2---2-------------------|---0-------0---0---0-------0---0-| 
G|-----------------2-----------2-----|---------------------------------| 
B|-1-----------1---------------------|-3-----------3---3-----------3---| 

D|-------0-----------------0-----------|---------------------------------| 
B|---------0h1p0-------------------1p0-|-------0---------------0---------| 
G|---0-0---------2-0-----0---0---------|-----2---2-----------2---2-------| 
D|-2-------------------2-------2-------|---0-------0---0---0-------0---0-| 
G|-------------------------------------|---------------------------------| 
B|-------------------1-----------1-----|-3-----------3---3-----------0---|  

D|-----------------------0-----------|---------------------------------| 
B|-------0-------------1---1-----1p0-|-------0---------------0---------| 
G|-----0---0---------0-------0-------|-----2---2-----------2---2-------| 
D|---2-------2---2-------------------|---0-------0---0---0-------0---0-| 
G|-----------------2-----------2-----|---------------------------------| 
B|-1-----------1---------------------|-3-----------3---3-----------3---| 

D|-----------------------0-----------|---------------------------------| 
B|-------0-----------------------1p0-|-------0---------------0---------| 
G|-----2---2-----------0---0---------|-----2---2-----------2---2-------| 
D|---0-------0---0---2-------2-------|---0-------0---0---0-------0---0-| 
G|-0-----------0---------------------|---------------------------------| 
B|-----------------1-----------1-----|-3-----------3---3-----------0---|  

D|-----------------------0-----------|---------------------------------| 
B|-------0-------------1---1-----1p0-|-------0---------------0---------| 
G|-----0---0---------0-------0-------|-----2---2-----------2---2-------| 
D|---2-------2---2-------------------|---0-------0---0---0-------0---0-| 
G|-----------------2-----------2-----|---------------------------------| 
B|-1-----------1---------------------|-3-----------3---3-----------3---| 

D|-------0-----------------0-----------|---------------------------------| 
B|---------0h1p0-------------------1p0-|-------0---------------0---------| 
G|---0-0---------2-0-----0---0---------|-----2---2-----------2---2-------| 
D|-2-------------------2-------2-------|---0-------0---0---0-------0---0-| 
G|-------------------------------------|---------------------------------| 
B|-------------------1-----------1-----|-3-----------3---3-----------0---|   

D|-----------------------0-----------|---------------------------------| 
B|-------0-------------1---1-----1p0-|-------0---------------0---------| 
G|-----0---0---------0-------0-------|-----2---2-----------2---2-------| 
D|---2-------2---2-------------------|---0-------0---0---0-------0---0-| 
G|-----------------2-----------2-----|---------------------------------| 
B|-1-----------1---------------------|-3-----------3---3-----------3---| 

D|-----------------------0-----------|----| 
B|-------0-----------------------1p0-|----| 
G|-----2---2-----------0---0---------|----| 
D|---0-------0---0---2-------2-------|----| 
G|-0-----------0---------------------|----| 
B|-----------------1-----------1-----|-3~-|  




************************************ 


| h   Hammer-on 
| p   Pull-off 
| /   Slide up 
| \   Slide down 
| ~   Hold note/Vibrato 


************************************ 
  

top 5 | the tallest man on earth
top pop music
Outras músicas do artista letras do(a) The Tallest Man On Earth
3.
1904
Top cifras »Top artistas »
Petaxxon Comunicação Online
Cifras.com.br - Melhor e mais completo site de cifras e tablaturas do Brasil
Mais de 1 milhão de acordes de músicas cadastradas desde 2003
As informações contidas no nosso site são colaborações de seus usuários e podem conter erros, sendo assim, não nos responsabilizamos sobre nenhuma destas.
close
menos
mais
close
Cor dos acordes:

Cor da letra:

 

save
close
close
 
redimensionar