Cifras e Tablaturas
The Trews

The Trews

Lotta Work Little Love

Cifras Cancelar Versão de Impressão
cifras

The Trews - Lotta Work Little Love

fixar na tela  
Exibindo: vídeo-aula ver clipes redimensionar

Tom:

  
Intro 
e|--3-------------------------------3-------------------------------3--------| 
B|--3-------------------------------3-------------------------------3--------| 
G|--0---------2---------------------0---------2---------------------0--------| 
D|--0---------2-------------2-------0---------2-------------2-------0--------| 
A|--2---0-0h2-0-0h2-0-0h2p0-2-------2---0-0h2-0-0h2-0-0h2p0-2-------2--------| 
E|--3-3---------------------0-0-0h2-3-3---------------------0-0-0h2-3--------| 

e|--3-------------------------------3----------------------------------------| 
B|--3-------------------------------3----------------------------------------| 
G|--0---------2---------------------0---------2-2-2-2-2-2--------------------| 
D|--0---------2-------------2-------0---------2-2-2-2-2-2--------------------| 
A|--2---0-0h2-0-0h2-0-0h2p0-2-------2---0-0h2-0-0-0-0-0-0--------------------| 
E|--3-3---------------------0-0-0h2-3-3--------------------------------------| 

Verse 
e|------------------3--------------------------------------------------------| 
B|--3----3----------3------3-------------------------------------------------| 
G|--2brb-2brb-2brp0-0-0-2b---2brp0-2-----------------------------------------| 
D|------------------0--------------------------------------------------------| 
A|------------------2--------------------------------------------------------| 
E|------------------3--------------------------------------------------------| 

e|-------0---0---0-----------------------------------3-----------------------| 
B|---------------------------------------------------3-----------------------| 
G|-0-2/4--2/4-2/4--4\2p0-----------------------------0-----------------------| 
D|-----------------------2-2-----0-------------------0-----------------------| 
A|---------------------------oh2---2p1p0-1p0---------2-----------------------| 
E|-------------------------------------------3-3p0-0-3-----------------------| 

Bridge 
e|---------------------------------------------------------------------------| 
B|---------------------------------------------------------------------------| 
G|---------------------------------------------------------------------------| 
D|-----------------5----------------5---7-5----------------------------------| 
A|------5-7----5-7---7-5------5-6-7---7-----7-5------------------------------| 
E|-3b-0------7-----------3b-0------------------------------------------------| 

e|---------------------------------------------------------------------------| 
B|---------------------------------------------------------------------------| 
G|--------------------------------------------------9------------------------| 
D|-----------------5----------------5---7-5---------9------------------------| 
A|------5-7----5-7---7-5------5-6-7---7-----7-5-7-5-7------------------------| 
E|-3b-0------7-----------3b-0-----------------------0------------------------| 

Verse 
e|---------------------------------------------------------------------------| 
B|---------------------------------------------------------------------------| 
G|------------9--------------------------------------------------------------| 
D|------------9--------------------------------------------------------------| 
A|----5-6-7-5-7--------------------------------------------------------------| 
E|--7---------0--------------------------------------------------------------| 

Pre-Chorus 
e|--------------------------------|------------------------------------------| 
B|--------------------------------|------------------------------------------| 
G|--------------------------------|------------------------------------------| 
D|--------------------------------|--2-4-------------------------------------| 
A|-2h4-4-4-4-4--------------------|--2-4-------------------------------------| 
E|-------------2h4-4-4-4-2h4-4-4--|--0-2-------------------------------------| 

e|--------------------------------|------------------------------------------| 
B|--------------------------------|------------------------------------------| 
G|--------------------------------|------------------------------------------| 
D|--------------------------------|--2-4-------------------------------------| 
A|-2h4-4-4-4-4--------------------|--2-4-------------------------------------| 
E|-------------2h4-4-4-4-2h4-4-4--|--0-2-------------------------------------| 

Chorus 
e|--3--------3---------------------------------------------------------------| 
B|--3--------3---------------------------------------------------------------| 
G|--0--2-----0--2------------------------------------------------------------| 
D|--0--2--2--0--2------------------------------------------------------------| 
A|--2--0--2--2--0------------------------------------------------------------| 
E|--3-----0--3---------------------------------------------------------------| 



************************************ 

| h  Hammer-on 
| p  Pull-off 
| b  Bend 
| /  Slide up 
| \  Slide down 

************************************ 
  

top 5 | the trews
top rock alternativo
Outras músicas do artista letras do(a) The Trews
Top cifras »Top artistas »
Petaxxon Comunicação Online
Cifras.com.br - Melhor e mais completo site de cifras e tablaturas do Brasil
Mais de 1 milhão de acordes de músicas cadastradas desde 2003
As informações contidas no nosso site são colaborações de seus usuários e podem conter erros, sendo assim, não nos responsabilizamos sobre nenhuma destas.
close
menos
mais
close
Cor dos acordes:

Cor da letra:

 

save
close
close
 
redimensionar