Cifras e Tablaturas
The Van Pelt

The Van Pelt

The Good The Bad And The Blind

Cifras Cancelar Versão de Impressão

The Van Pelt - The Good The Bad And The Blind

Tom:

  			e|---------7-----------7----------7----------7---| 
    B|-4-h-5p4----4-h-5p4-----4-h-5p4----4-h-5p4---4-| 
GTR G|-----------------------------------------------| 
 1  D|-----------------------------------------------|  
    A|-----------------------------------------------| 
    E|-----------------------------------------------| 

    e|---------------------------------| 
    B|-0-4--0--0-4--0--0-4--0--0-4--0--| 
GTR G|---------------------------------| 
 1  D|---------------------------------| x3 
    A|---------------------------------| 
    E|---------------------------------| 

    e|---------------------------------| 
    B|----7----------------------------| 
GTR G|-8-------------------------------| 
 2  D|-------9-------------------------| Listen to the song to figure out when to play these. 
    A|---------------------------------| 
    E|---------------------------------| 

    e|---------7-----------7----------7----------7---| 
    B|-4-h-5p4----4-h-5p4-----4-h-5p4----4-h-5p4---4-| 
GTR G|-----------------------------------------------| 
 1  D|-----------------------------------------------|  
    A|-----------------------------------------------| 
    E|-----------------------------------------------| 

    e|---------------------------------| 
    B|----7----------------------------| 
GTR G|-8-------------------------8-----| 
 2  D|-------9----------------------9--|  
    A|-----------------------11--------| 
    E|---------------------------------| 

    e|---------------------------------| 
    B|-0-4--0--0-4--0--0-4--0--0-4--0--| 
GTR G|---------------------------------| 
 1  D|---------------------------------|  
    A|---------------------------------| 
    E|---------------------------------| 

    e|---------------------------------| 
    B|----7----------------------------| 
GTR G|-8-------------------------8-----| 
 2  D|-------9----------------------9--|  
    A|-----------------------11--------| 
    E|---------------------------------| 

    e|---------7--------------------------| 
    B|-4-h-5p4----0-4--0--0-4--0--0-4--0--| 
GTR G|------------------------------------| 
 1  D|------------------------------------|  
    A|------------------------------------| 
    E|------------------------------------| 

    e|---------------------------------| 
    B|----7----------------------------| 
GTR G|-8-------------------------8-----| 
 2  D|-------9----------------------9--|  
    A|-----------------------11--------| 
    E|---------------------------------| 

    e|---------------------------------| 
    B|-0-4--0--0-4--0--0-4--0--0-4--0--| 
GTR G|---------------------------------| 
 1  D|---------------------------------|  
    A|---------------------------------| 
    E|---------------------------------| 

    e|---------------------------------| 
    B|----7----------------------------| 
GTR G|-8-------------------------8-----| 
 2  D|-------9----------------------9--|  
    A|-----------------------11--------| 
    E|---------------------------------| 

Play the same GTR 2 part throughout, but alternate between the two GTR 1 parts, playing each one once. 
Play whole section four times. 


    e|--------2------4----2---4---2---------------------------------| 
    B|-------------------------------0-4--0--0-4--0--0-4--0--0-4--0-| 
GTR G|-6-/4-4----4-4----4-------4-----------------------------------| 
 1  D|--------------------------------------------------------------|  
    A|--------------------------------------------------------------| 
    E|--------------------------------------------------------------| 

    e|--------------------------------------------------------------| 
    B|-------------------------------------7------------------------| 
GTR G|----------------------------------8---------------------------| 
 2  D|-9-9-9-9-9-9-9-9-9-9-9-9-9-9-9-9--------9---------------------| 
    A|-7-7-7-7-7-7-7-7-7-7-7-7-7-7-7-7------------------------------| 
    E|--------------------------------------------------------------| 
       * * * * * * * * * * * * * * * * 

    e|--------2------4----2---4---2----------7-------7-------7-------7--| 
    B|-------------------------------4-h-5p4----0-4-----0-4-----0-4-----| 
GTR G|-6-/4-4----4-4----4-------4---------------------------------------| 
 1  D|------------------------------------------------------------------| 
    A|------------------------------------------------------------------| 
    E|------------------------------------------------------------------| 

    e|------------------------------------------------------------------------------| 
    B|--------------------------------------7---------------------------------------| 
GTR G|-----------------------------------8------------------------------------------| 
 2  D|-9-9-9-9-9-9-9-9-9-9-9-9-9-9-9-9---------9------------------------------------| 
    A|-7-7-7-7-7-7-7-7-7-7-7-7-7-7-7-7----------------------------------------------| 
    E|------------------------------------------------------------------------------| 
       * * * * * * * * * * * * * * * * 

    e|--------2------4----2---4p2---2---------------------------------| 
    B|---------------------------------0-4--0--0-4--0--0-4--0--0-4--0-| 
GTR G|-6-/4-4----4-4----4---------4-----------------------------------| 
 1  D|----------------------------------------------------------------| 
    A|----------------------------------------------------------------| 
    E|----------------------------------------------------------------| 

    e|------------------------------------------------------------------------------| 
    B|--------------------------------------7---------------------------------------| 
GTR G|-----------------------------------8------------------------------------------| 
 2  D|-9-9-9-9-9-9-9-9-9-9-9-9-9-9-9-9---------9------------------------------------| 
    A|-7-7-7-7-7-7-7-7-7-7-7-7-7-7-7-7----------------------------------------------| 
    E|------------------------------------------------------------------------------| 
       * * * * * * * * * * * * * * * * 

    e|--------2------4----2---4p2---2----------7-------7-------7-------7---| 
    B|---------------------------------4-h-5p4----0-4-----0-4-----0-4----4-| 
GTR G|-6-/4-4----4-4----4---------4----------------------------------------| 
 1  D|---------------------------------------------------------------------|  
    A|---------------------------------------------------------------------| 
    E|---------------------------------------------------------------------| 

    e|------------------------------------------------------------------------------| 
    B|--------------------------------------7---------------------------------------| 
GTR G|-----------------------------------8------------------------------------------| 
 2  D|-9-9-9-9-9-9-9-9-9-9-9-9-9-9-9-9---------9------------------------------------|  
    A|-7-7-7-7-7-7-7-7-7-7-7-7-7-7-7-7----------------------------------------------| 
    E|------------------------------------------------------------------------------| 
       * * * * * * * * * * * * * * * * 

    e|--------2------4----2--4p2---2-| 
    B|-------------------------------| 
GTR G|-6-/4-4----4-4----4--------4---| 
 1  D|-------------------------------| 
    A|-------------------------------| 
    E|-------------------------------| 

    e|---------------------------------| 
    B|---------------------------------| 
GTR G|---------------------------------| 
 2  D|-9-9-9-9-9-9-9-9-9-9-9-9-9-9-9-9-|  
    A|-7-7-7-7-7-7-7-7-7-7-7-7-7-7-7-7-| 
    E|---------------------------------| 
       * * * * * * * * * * * * * * * * 

    e|----------------------------------------------2-----4----2--4p2---2-| 
    B|--------------------------------------------------------------------| 
GTR G|----8-----8--8-----8--8-----8--8-----8-6-/4-4---4-4----4--------4---| 
 1  D|-9-----9--------9--------9--------9---------------------------------| x2 
    A|--------------------------------------------------------------------| 
    E|--------------------------------------------------------------------| 

    e|-7-7-7-7-7-7-7-7-7-7-7-7-7-7-7-7---------------------------------| 
    B|-4-4-4-4-4-4-4-4-4-4-4-4-4-4-4-4---------------------------------| 
GTR G|-4-4-4-4-4-4-4-4-4-4-4-4-4-4-4-4-8-8-8-8-8-8-8-8-8-8-8-8-8-8-8-8-| 
 2  D|---------------------------------9-9-9-9-9-9-9-9-9-9-9-9-9-9-9-9-| x2 
    A|---------------------------------7-7-7-7-7-7-7-7-7-7-7-7-7-7-7-7-| 
    E|-----------------------------------------------------------------| 

    e|------------------------------------------------------------------------| 
    B|------------------------------------------------------------------------| 
GTR G|----8-----8--8-----8--8-----8--8-8-8-8-8-8-8-8-8-8-8-8-8-8-8-8-11-11-11-| 
 1  D|-9-----9--------9--------9-------9-9-9-9-9-9-9-9-9-9-9-9-9-9-9-9--9--9--| x2 
    A|---------------------------------7-7-7-7-7-7-7-7-7-7-7-7-7-7-7-7--7--7--| 
    E|------------------------------------------------------------------------| 

    e|-7-7-7-7-7-7-7-7-7-7-7-7-7-7-7-7----------------------------------------| 
    B|-4-4-4-4-4-4-4-4-4-4-4-4-4-4-4-4----------------------------------------| 
GTR G|-4-4-4-4-4-4-4-4-4-4-4-4-4-4-4-4-8-8-8-8-8-8-8-8-8-8-8-8-8-8-8-11-11-11-| 
 2  D|---------------------------------9-9-9-9-9-9-9-9-9-9-9-9-9-9-9-9--9--9--| x2 
    A|---------------------------------7-7-7-7-7-7-7-7-7-7-7-7-7-7-7-7--7--7--| 
    E|------------------------------------------------------------------------| 

    e|-------7------------7-----------| 
    B|----7---------------------------| 
GTR G|-8------------------------------| 
 1  D|-----------6--------------------| 
    A|--------------------------------| 
    E|--------------------------------| 

    e|--------------------------------| 
    B|--------------------------------| 
GTR G|-----------------------8--------| 
 2  D|--------------------9-----9-----| 
    A|--------------------------------| 
    E|--------------------------------| 
    	
fixar
fixar inscrever-se

enviado porenviado por: hugo_rodrigues
cifra enviadaCorrigida por: sem correções
logo top cifrasComente
ico música do artistaMúsicas deste artista
ico curtiuCurtiu?
ico destaqueDestaque
Petaxxon Comunicação Online

Cifras.com.br - Melhor e mais completo site de cifras e tablaturas do Brasil Mais de 1 milhão de acordes de músicas cadastradas desde 2003
As informações contidas no nosso site são colaborações de seus usuários e podem conter erros, sendo assim, não nos responsabilizamos sobre nenhuma destas.

close
menos
mais
close
Cor dos acordes:

Cor da letra:

close
Alinhar acordes a direita Alinhar acordes a esquerda Alinhar acordes em baixo Alinhar acordes no topo
close
  Mostrar todos os acordes Esconder acordes muito fáceis Esconder acordes fáceis Esconder acordes intermediários
redimensionar
glossário