Cifras e Tablaturas
The Voidz

The Voidz

Coul As A Ghoul

Cifras Cancelar Versão de Impressão Print

The Voidz - Coul As A Ghoul

Tom:

  • 0:00 / 0:00
  			
Verse 
Amir and Beardo 
e|---------------------------------------------------------------------------| 
B|---------------------------------------------------------------------------| 
G|---------------------------------------------------------------------------| 
D|---------------------------------------------------------------------------| 
A|--33-22--------------------------------------------------------------------| 
E|11-----33-22-44-33-00------------------------------------------------------| 
Chorus 
Beardo 
e|---------------------------------------------------------------------------| 
B|--1-/-7-6------------------------------------------------------------------| 
G|-2-/-8---7-----------------------------------------------------------------| 
D|3-/-9-----8-87878----------------------------------------------------------| 
A|---------------------------------------------------------------------------| 
E|---------------------------------------------------------------------------| 
Amir 
e|---------------------------------------------------------------------------| 
B|---------------------------------------------------------------------------| 
G|---------------------------------------------------------------------------| 
D|3-9-8----------------------------------------------------------------------| 
A|3-9-8----------------------------------------------------------------------| 
E|1-7-6----------------------------------------------------------------------| 

Bridge/Pre Chorus (you play this when julion screams YOUUUU) 
Amir and Beardo 
e|---------------------------------------------------------------------------| 
B|---------------------------------------------------------------------------| 
G|3--------------------------------------------------------------------------| 
D|3--------------------------------------------------------------------------| 
A|1--------------------------------------------------------------------------| 
E|---------------------------------------------------------------------------| 

Last Verse 
Amir and Beardo 
e|---------------------------------------------------------------------------| 
B|---------------------------------------------------------------------------| 
G|---------------------------------------------------------------------------| 
D|---------------------------------------------------------------------------| 
A|--33-22--------------------------------------------------------------------| 
E|11-----33-22-44-33-00------------------------------------------------------| 

Last Chorus(This part is just strumming) 
Beardo 
e|---------------------------------------------------------------------------| 
B|1-7-6----------------------------------------------------------------------| 
G|2-8-7----------------------------------------------------------------------| 
D|3-9-8----------------------------------------------------------------------| 
A|---------------------------------------------------------------------------| 
E|---------------------------------------------------------------------------| 
Amir 
e|---------------------------------------------------------------------------| 
B|---------------------------------------------------------------------------| 
G|---------------------------------------------------------------------------| 
D|3-9-8----------------------------------------------------------------------| 
A|3-9-8----------------------------------------------------------------------| 
E|1-7-6----------------------------------------------------------------------| 

************************************ 

| /   Slide up 
| \   Slide down 

************************************ 
    	

enviado porenviado por: ang-letra
cifra enviadaCorrigida por: sem correções
logo top cifrasComente
ico música do artistaMúsicas deste artista
ico curtiuCurtiu?
ico destaqueDestaque
Petaxxon Comunicação Online

Cifras.com.br - Melhor e mais completo site de cifras e tablaturas do Brasil Mais de 1 milhão de acordes de músicas cadastradas desde 2003
As informações contidas no nosso site são colaborações de seus usuários e podem conter erros, sendo assim, não nos responsabilizamos sobre nenhuma destas.

close
menos
mais
close
Cor dos acordes:

Cor da letra:

close
Alinhar acordes a direita Alinhar acordes a esquerda Alinhar acordes em baixo Alinhar acordes no topo
close
  Mostrar todos os acordes Esconder acordes muito fáceis Esconder acordes fáceis Esconder acordes intermediários
redimensionar
glossário