Cifras e Tablaturas
The Wrens

The Wrens

Ex-girl Collection

Cifras Cancelar Versão de Impressão

The Wrens - Ex-girl Collection

Tom: F#

	  		
Intro w/ Organ 
e|----------------------------------------------------------------------------| 
B|--3--1--0-------3---3---3---3----3--1--0--1---1---1--0---3------------------| 
G|-----------2--0---0---4---4---0-------------2---2------0---0------0------0--| embellished with harmonics 
D|----------------------------------------------------------------0------4----| and slides on multiple guitars 
A|--------------------------------------------------------------2-------------| 
E|----------------------------------------------------------------------------| 

e|--------0--5--3--2--3----3---3---3---3------3----------------------------------| 
B|-----------------------5---3---1---0---1--3---3--0--3--1--0--1--0---3--0-------| 
G|------0-----------------------------------------------------------0------2--0--| 
D|----0--------------------------------------------------------------------------| 
A|--2----------------------------------------------------------------------------| 
E|-------------------------------------------------------------------------------| 

Verse 
e|----------------------------------------------------------------------(2)---| 
B|--3--1--0-------3---3---3---3----3--1--0--1---1---1--0---3------------------| 
G|-----------2--0---0---4---4---0-------------2---2------0---0------0------0--| the F# on the high e is played 
D|----------------------------------------------------------------0------4----| instead of the F# on the D for 
A|--------------------------------------------------------------2-------------| some mixes of this song 
E|----------------------------------------------------------------------------| 

e|--------0--5--3--2--3----3---3---3---3------3----------------------------------| 
B|-----------------------5---3---1---0---1--3---3--0--3--1--0--1--0---3--0-------| or maybe both are played? 
G|------0-----------------------------------------------------------0------2--0--| and one sounds more on a 
D|----0--------------------------------------------------------------------------| single mix than the other? 
A|--2----------------------------------------------------------------------------| 
E|-------------------------------------------------------------------------------| 

e|---------------------------------------------------------------| 
B|----3---3---3---3----3--1--0--1---1---1--0---3-----------------| 
G|--0---0---4---4---0-------------2---2------0---0-----0------0--| x2 
D|---------------------------------------------------0------4----| 
A|-------------------------------------------------2-------------| 
E|---------------------------------------------------------------| 

Pre-Chorus 
e|----------------------------------| 
B|----------------------------------| 
G|--0------0-------2-------2--------|  
D|----4-0----4-0-----4-0-----4-0----| 
A|--------2------2-------3-------3--| 
E|----------------------------------| 

Chorus 
e|--0-----0--------------------------------------------------------| 
B|------0---3---0-3-1---0-3---1-0----------3---1-0--------3---1-0--| 
G|----0-------0-------0-----0------------0---0----------0---0------|  
D|------------------------------------0--------------0-------------| 
A|---------------------------------2--------------2----------------| 
E|-----------------------------------------------------------------| 

e|--0-----0--------------------------| 
B|------0---3---0-3-1---0-1-3---0-3--| 
G|----0-------0-------0-------0------|  
D|-----------------------------------| 
A|-----------------------------------| 
E|-----------------------------------| 

Verse 
e|---------------------------------------------------------(2)---| 
B|----3---3---3---3----3--1--0--1---1---1--0---3-----------------| 
G|--0---0---4---4---0-------------2---2------0---0-----0------0--| 
D|---------------------------------------------------0------4----| 
A|-------------------------------------------------2-------------| 
E|---------------------------------------------------------------| 

e|--------0--5--3--2--3----3---3---3---3------3----------------------------------| 
B|-----------------------5---3---1---0---1--3---3--0--3--1--0--1--0---3--0-------| 
G|------0-----------------------------------------------------------0------2--0--| 
D|----0--------------------------------------------------------------------------| 
A|--2----------------------------------------------------------------------------| 
E|-------------------------------------------------------------------------------| 

Pre-Chorus 
e|----------------------------------| 
B|----------------------------------| 
G|--0------0-------2-------2--------|  
D|----4-0----4-0-----4-0-----4-0----| 
A|--------2------2-------3-------3--| 
E|----------------------------------| 

Chorus 
e|--0-----0--------------------------------------------------------| 
B|------0---3---0-3-1---0-3---1-0----------3---1-0--------3---1-0--| 
G|----0-------0-------0-----0------------0---0----------0---0------| x4 
D|------------------------------------0--------------0-------------| 
A|---------------------------------2--------------2----------------| 
E|-----------------------------------------------------------------| 

Bridge 
// as Ann, hand on hip, accusing me to the rafters. the words turn and spit 
e|--8---8---8---8---8---8----12---12---12---12---12---12----| 
B|----8---8---8---8---8---8-----8----8----8----8----8----8--| 
G|----------------------------------------------------------|  
D|----------------------------------------------------------| 
A|----------------------------------------------------------| 
E|----------------------------------------------------------| 

// and scorch right through to the plaster. I'm called ten kinds  
e|--7---7---7---7---7---7----5---5---5-------5---5---5---5--| 
B|----8---8---8---8---8---8----8---8---8---7---7---7---7----| 
G|----------------------------------------------------------| i'm not 100% on this part, it's probably two 
D|----------------------------------------------------------| guitars playing different riffs at the same 
A|----------------------------------------------------------| time. 
E|----------------------------------------------------------| 

// of a bastard. curses come faster! 
e|--------------------------------------| 
B|--------------------------------------| 
G|--------------------------------------| second guitar plays this at over end of previous part, last note 
D|----0--0-5-4p0-2p0---------0----------| hits at the same time of the first note in main riff 
A|--0----------------3-2-0-----3-2-0----| 
E|-------------------------3---------3--| 

Verse 
e|---------------------------------------------------------(2)---| 
B|----3---3---3---3----3--1--0--1---1---1--0---3-----------------| 
G|--0---0---4---4---0-------------2---2------0---0-----0------0--| 
D|---------------------------------------------------0------4----| 
A|-------------------------------------------------2-------------| 
E|---------------------------------------------------------------| 

e|--------0--5--3--2--3----3---3---3---3------3----------------------------------| 
B|-----------------------5---3---1---0---1--3---3--0--3--1--0--1--0---3--0-------| 
G|------0-----------------------------------------------------------0------2--0--|  
D|----0--------------------------------------------------------------------------| 
A|--2----------------------------------------------------------------------------| 
E|-------------------------------------------------------------------------------| 

Pre-Chorus 
e|----------------------------------| 
B|----------------------------------| 
G|--0------0-------2-------2--------|  
D|----4-0----4-0-----4-0-----4-0----| 
A|--------2------2-------3-------3--| 
E|----------------------------------| 

Chorus 
e|--0-----0--------------------------------------------------------| 
B|------0---3---0-3-1---0-3---1-0----------3---1-0--------3---1-0--| 
G|----0-------0-------0-----0------------0---0----------0---0------| x4 
D|------------------------------------0--------------0-------------| 
A|---------------------------------2--------------2----------------| 
E|-----------------------------------------------------------------| 

// time. fine. 
e|--0-----0---------0-0-0-0--| 
B|------0---3---0-3-1-1-1-1--| 
G|----0-------0-----0-0-0-0--| x2 
D|---------------------------|    
A|---------------------------| 
E|---------------------------| 
// why? what else you got? 
e|--0-----0---------0-0------| 
B|------0---3---0-3-1-1-0-3--| 
G|----0-------0-----0-0------| 
D|---------------------------|    
A|---------------------------| 
E|---------------------------| 

Outro 
e|---------------------------------------------------------(2)---| 
B|----3---3---3---3----3--1--0--1---1---1--0---3-----------------| 
G|--0---0---4---4---0-------------2---2------0---0-----0------0--| this is just the intro riff. repeat until 
D|---------------------------------------------------0------4----| end (or natural death). 
A|-------------------------------------------------2-------------| 
E|---------------------------------------------------------------| 
  
e|--------0--5--3--2--3----3---3---3---3------3----------------------------------| 
B|-----------------------5---3---1---0---1--3---3--0--3--1--0--1--0---3--0-------| 
G|------0-----------------------------------------------------------0------2--0--|  
D|----0--------------------------------------------------------------------------| 
A|--2----------------------------------------------------------------------------| 
E|-------------------------------------------------------------------------------| 

i might have mixed the two guitar parts together at some points but this should be a good jumping off point to 
cover this song if you ever feel like it w/ the chords tab already on this site. 

Example Embellishment for Intro 
e|-------------------2---3----| 
B|------3--------3-----3---3--| 
G|--2/4---4--2/4---4----------| you can figure out this mess yourself 
D|----------------------------|     
A|----------------------------| 
E|----------------------------| 
	     
fixar
fixar inscrever-se

enviado porenviado por: marcnagel
cifra enviadaCorrigida por: sem correções
logo top cifrasComente
ico música do artistaMúsicas deste artista
ico curtiuCurtiu?
ico destaqueDestaque
Petaxxon Comunicação Online

Cifras.com.br - Melhor e mais completo site de cifras e tablaturas do Brasil Mais de 1 milhão de acordes de músicas cadastradas desde 2003
As informações contidas no nosso site são colaborações de seus usuários e podem conter erros, sendo assim, não nos responsabilizamos sobre nenhuma destas.

close
menos
mais
close
Cor dos acordes:

Cor da letra:

close
Alinhar acordes a direita Alinhar acordes a esquerda Alinhar acordes em baixo Alinhar acordes no topo
close
  Mostrar todos os acordes Esconder acordes muito fáceis Esconder acordes fáceis Esconder acordes intermediários
redimensionar
glossário