Cifras e Tablaturas
Thee Oh Sees

Thee Oh Sees

Animated Violence

Cifras Cancelar Versão de Impressão
cifras

Thee Oh Sees - Animated Violence

fixar na tela  
Exibindo: vídeo-aula ver clipes redimensionar

Tom:

  
Intro/verse 1 
d|-----0-0-0-0------0-0-0-0------0-0-0-0-----------------------------------------| 
B|-----3-3-3-3------3-3-3-3------3-3-3-3-----------------------------------------| 
G|-----2-2-2-2------2-2-2-2------2-2-2-2-----------------------------------------|   play this 8 times 
D|-0-0-0-0-0-0--0-0-0-0-0-0--0-0-0-0-0-0---1/12-12-12----------------------------| 
A|-0-0-0-0-0-0--0-0-0-0-0-0--0-0-0-0-0-0---1/12-12-12----------------------------| 
D|-0-0-0-0-0-0--0-0-0-0-0-0--0-0-0-0-0-0---1/12-12-12----------------------------| 

Bridge 1 
d|-4h7p4p0-4hp7p0-4h7p3p0-6h9p6p0-6h9p6p0-6h9p9p0-7h10p7p0-7h10p7p0-7h10p7p0-6h9p6p0-6h9p6p0-6h9p6h9p6h9p6h9/| 
B|-----------------------------------------------------------------------------------------------------------| 
G|-----------------------------------------------------------------------------------------------------------| 
D|-----------------------------------------------------------------------------------------------------------| 
A|-----------------------------------------------------------------------------------------------------------| 
D|-----------------------------------------------------------------------------------------------------------| 

d|-4h7p4p0-4hp7p0-4h7p3p0-6h9p6p0-6h9p6p0-6h9p9p0-7h10p7p0-7h10p7p0-7h10p7p0--6h9p6h9p6h9p6h9/| 
B|--------------------------------------------------------------------------------------------| 
G|--------------------------------------------------------------------------------------------| 
D|--------------------------------------------------------------------------------------------| 
A|--------------------------------------------------------------------------------------------| 
D|--------------------------------------------------------------------------------------------| 

verse 2 
d|-----0-0-0-0------0-0-0-0------0-0-0-0-----------------------------------------| 
B|-----3-3-3-3------3-3-3-3------3-3-3-3-----------------------------------------| 
G|-----2-2-2-2------2-2-2-2------2-2-2-2-----------------------------------------|   play this 6 times 
D|-0-0-0-0-0-0--0-0-0-0-0-0--0-0-0-0-0-0---1/12-12-12----------------------------| 
A|-0-0-0-0-0-0--0-0-0-0-0-0--0-0-0-0-0-0---1/12-12-12----------------------------| 
D|-0-0-0-0-0-0--0-0-0-0-0-0--0-0-0-0-0-0---1/12-12-12----------------------------| 

Bridge 1 
d|-4h7p4p0-4hp7p0-4h7p3p0-6h9p6p0-6h9p6p0-6h9p9p0-7h10p7p0-7h10p7p0-7h10p7p0-6h9p6p0-6h9p6p0-6h9p6h9p6h9p6h9/| 
B|-----------------------------------------------------------------------------------------------------------| 
G|-----------------------------------------------------------------------------------------------------------| 
D|-----------------------------------------------------------------------------------------------------------| 
A|-----------------------------------------------------------------------------------------------------------| 
D|-----------------------------------------------------------------------------------------------------------| 

d|-4h7p4p0-4hp7p0-4h7p3p0-6h9p6p0-6h9p6p0-6h9p9p0-7h10p7p0-7h10p7p0-7h10p7p0--6h9p6h9p6h9p6h9/| 
B|--------------------------------------------------------------------------------------------| 
G|--------------------------------------------------------------------------------------------| 
D|--------------------------------------------------------------------------------------------| 
A|--------------------------------------------------------------------------------------------| 
D|--------------------------------------------------------------------------------------------| 

bridge 2 with organ written for guitar  
d|---------------|                                       
B|-3---6---10---8| 
G|---------------| play this 3 times  
D|---------------| 
A|---------------| 
D|---------------| 

d|------------------| 
B|-3---6---10---8-15| 
G|------------------| one time 
D|------------------|  
A|------------------| 
D|------------------| 

Guitar part is just  
d|---------------------------------------| 
B|---------------------------------------| 
G|---------------------------------------| 
D|-1/12-12-12----------------------------| 
A|-1/12-12-12----------------------------| 
D|-1/12-12-12----------------------------| 

solo bass part 
d|----------------------------------------------------------------| 
B|----------------------------------------------------------------| 
G|----------------------------------------------------------------|  
D|----------------------------------------------------------------| 
A|----------------------------------------------------------------| 
D|-0/12-0/12-0/12-14p12h14p12-17----------------------------------| 




************************************ 

| /  Slide up 
| h  Hammer-on 
| p  Pull-off 

************************************ 
  

top 5 | thee oh sees
top rock alternativo
Outras músicas do artista letras do(a) Thee Oh Sees
Top cifras »Top artistas »
Petaxxon Comunicação Online
Cifras.com.br - Melhor e mais completo site de cifras e tablaturas do Brasil
Mais de 1 milhão de acordes de músicas cadastradas desde 2003
As informações contidas no nosso site são colaborações de seus usuários e podem conter erros, sendo assim, não nos responsabilizamos sobre nenhuma destas.
close
menos
mais
close
Cor dos acordes:

Cor da letra:

 

save
close
close
 
redimensionar