Cifras e Tablaturas
Thee Oh Sees

Thee Oh Sees

Gelatinous Cube

Cifras Cancelar Versão de Impressão
cifras

Thee Oh Sees - Gelatinous Cube

fixar na tela  
Exibindo: vídeo-aula ver clipes redimensionar
  
Intro  
e|---------------------------------| 
B|---------------------------------| 
G|---------------------------------| 
D|---------------------------------| 
A|---------------------------------| 
E|-5-whammy-to-3-------------------| 3 times 

Riff A 
                                                               (delay)  
e|---------------------------------|          |---------------------------------| 
B|---------------------------------|          |-----------------0---------------| 
G|---------------------------------|          |-----------------0---------------| 
D|-----------------7-7-7-9---7-7-7-|          |-----------------0---------------| 
A|-----------------7-7-7-9---7-7-7-|          |---------------------------------| 
E|-3p2-2-2-3p2-2-2-5-5-5-7---5-5-5-| 3 times  |-3p2-2-2-3p2-2-2-----------------| 

Riff B 
e|-2-2-5-5-7-7-4-4-2-2-5-5-7-7-|-4-4-4-4-| 
B|-2-2-5-5-7-7-4-4-2-2-5-5-7-7-|-4-4-4-4-| 
G|-3-3-6-6-8-8-5-5-3-3-6-6-8-8-|-5-5-5-5-| 
D|-4-4-6-6-9-9-6-6-4-4-7-7-9-9-|-6-6-6-6-| 
A|-4-4-6-6-9-9-6-6-4-4-7-7-9-9-|-6-6-6-6-| 
E|-2-2-5-5-7-7-4-4-2-2-5-5-7-7-|-4-4-4-4-| 

Solo 
e|-----------------------------------|---------------------------------| 
B|-----------------------------------|------------------5-5-5---5------| 
G|-4-4-4-4-4bp2---2-4-4-4-4-4bp2---2-|-4-4-4-4-4bp2---2-----------4-4--| 
D|--------------4----------------4---|--------------4------------------| 
A|-----------------------------------|---------------------------------| 
E|-----------------------------------|---------------------------------| 
                                                        (delay         )  
e|-----------------------------------|---------------------------------| 
B|-----------------------------------|------------------0--------------| 
G|-4-4-4-4-4bp2---2-4-4-4-4-4bp2---2-|-4-4-4-4-4bp2---2-0--------------| 
D|--------------4----------------4---|--------------4---0--------------| 
A|-----------------------------------|---------------------------------| 
E|-----------------------------------|---------------------------------| 

Riff C 
                                 sometimes you play that chord between the ()   
e|-----------------------------------| 
B|-------------------------------(0)-| 
G|-------------------------------(0)-| 
D|-------------------------------(0)-| 
A|-----------------------------------| 
E|-11--s2-2-2-----2-2-2-----2--------| 

Riff D 
e|-2-2-2-2-2-2-2-2-2-2-2-2-2-2-2-2-|-4-4-4-4-4-4-4-4-4-4-4-4-4-4-4-4-| 
B|-2-2-2-2-2-2-2-2-2-2-2-2-2-2-2-2-|-4-4-4-4-4-4-4-4-4-4-4-4-4-4-4-4-| 
G|---------------------------------|---------------------------------| 
D|---------------------------------|---------------------------------| 
A|---------------------------------|---------------------------------| 
E|---------------------------------|---------------------------------| 


e|-5-5-5-5-5-5-5-5-5-5-5-5-5-5-5-5-|-2--2----9--9----2--2----9--9----| 
B|-5-5-5-5-5-5-5-5-5-5-5-5-5-5-5-5-|-2--2----9--9----2--2----9--9----| 
G|---------------------------------|-2--2----9--9----2--2----9--9----| 
D|---------------------------------|---------------------------------| 
A|---------------------------------|---------------------------------| 
E|---------------------------------|---------------------------------| 

At the end, repeat riff B. And That's it!  

************************************ 
| p  Pull-off 
| b  Bend 
| s  Slide 
*********************************** 
  

cifra enviadasem correções
enviado porenviada por:carlluz
top 5 | thee oh sees
top rock alternativo
Outras músicas do artista letras do(a) Thee Oh Sees
Top cifras »Top artistas »
Petaxxon Comunicação Online
Cifras.com.br - Melhor e mais completo site de cifras e tablaturas do Brasil
Mais de 1 milhão de acordes de músicas cadastradas desde 2003
As informações contidas no nosso site são colaborações de seus usuários e podem conter erros, sendo assim, não nos responsabilizamos sobre nenhuma destas.
close
menos
mais
close
Cor dos acordes:

Cor da letra:

 

save
close
close
 
redimensionar